Oops, an error
Loading. Please wait.

Gory Head Stump 2006 The Pageant Of The Slunks Bass Tab

version 1
version 1

Whole song

Interactive

483 views 1 this week
no commentswrite comment
1 2 3 4 5
3 more votes to show rating
add to favorites
launch autoscroll
font size
0
reset
guitar tuner
Autoscroll
slow
fast
+/-
esc
set tempo
stop
Help us to improve Ultimate-Guitar.com Take our survey!
×
Difficulty
novice
----------------------------------------------------------------------------
	Gory Head Stump 2006 The Pageant Of The Slunks  - Buckethead
----------------------------------------------------------------------------

Tabbed By : Levi Morales
e-mail: muzikboy3@aol.com

I know this is way off but i couldnt find the tab so i made 1
If u know how it really goes make a new tab or comment on this 1
The intro is just guitar after the bass comes in
The whole song is 1 riff exept for the solo
K here it goes enjoy:)
G|-------------------------------------------------------------------------|
D|-------------------------------------------------------------------------|
A|-----------------------9---7------------------9---7----------------------|
E|-------7----7----7--------------7----7----7------------------------------|
it does that till the solo(s) goes
G|-------------------------------------------------------------------------|
D|-------------------------------------------------------------------------|
A|---------8---9---7-7-----8---9-9-----------------------------------------|
E|----7----------------7-----------9---------------------------------------|
do that till the solo ends

well hope you enjoyed please write back soon


| /  slide up
| \  slide down
| h  hammer-on
| p  pull-off
| ~  vibrato
| +  harmonic
| x  Mute note
===============================================================================
Suggest correction
Give kudos to tab author, rate the tab!
1 2 3 4 5
comments
print report bad tab
guest
You may want to rate the tab now too:
select rating
Wanna post a correction for this tab? Suggest correction