Oops, an error
Loading. Please wait.

Gory Head Stump 2006 The Pageant Of The Slunks Tab

version 1
version 1

Intro

Interactive

3,815 views 21 this week
no commentswrite comment
1 2 3 4 5
please rate
add to favorites
launch autoscroll
font size
0
reset
how to read this tab
guitar tuner
Tab Pro tools
  • play this tab
  • loop segment
  • change instrument
  • show fretboard
  • metronome
×
Best way to learn
"Gory Head Stump 2006 The Pageant Of The Slunks"
Autoscroll
slow
fast
+/-
esc
set tempo
stop
Contributor
Tuning is Half-Step down

This my first tab so if its not good,give it a bad rating I'll fix it.
if something doesnt seem right lemme know.
I'm not completely sure that the mini solo Is completely right but Its
close enough
**********************************************************************
H = hammer-on
P = pull-off

w/Distortion and maybe a slight P.M.
Also on the mutes pick upwards

eb|-------------------------|
Bb|-------------------------|
Gb|-------------------------|
Db|--5-5-5-x-5-3-5----------| X 6
Ab|--3-3-3-x-3-1-3----------|
EB|-------------------------|

now with Wah Wah and distortion. But no P.M.

|----------------------------------|
|----------------------------------|
|----------------------------------|
|----------------------------------|
|----------4h5p4h5-3h4p3h4---------|
|--3h4p3h4-----------------5h6p5h6-|

|----------------------------------|
|----------------------------------|
|----------------------------------|
|----------------------------------|
|----------4h5p4h5-5h6p5h6---------|
|--3h4p3h4-----------------5h6p5h6-|

Take Wah Wah off but keep distortion

|-------------------------|
|-------------------------|
|-------------------------|
|--5-5-5-x-5-3-5----------| X 6
|--3-3-3-x-3-1-3----------|
|-------------------------|

Wah Wah back and keep distortion

|----------------------------------|
|----------------------------------|
|----------------------------------|
|----------------------------------|
|----------4h5p4h5-3h4p3h4---------|
|--3h4p3h4-----------------5h6p5h6-|
                                        X 2
|----------------------------------|
|----------------------------------|
|----------------------------------|
|----------------------------------|
|----------4h5p4h5-5h6p5h6---------|
|--3h4p3h4-----------------5h6p5h6-|

Wah Wah off once again Still keep distortion.

|-------------------------|
|-------------------------|
|-------------------------|
|--5-5-5-x-5-3-5----------| X 6
|--3-3-3-x-3-1-3----------|
|-------------------------|


I couldnt figure out if there was a slide or not here.
Then it goes into this.

w/distortion

|-6h7p6p5h6p5p4h5p4------------|
|-------------------6-7--------|
|------------------------------|
|------------------------------| x 3
|------------------------------|
|------------------------------|

|-6h7p6p5h6p5p4h5p4------------|
|-------------------4-6--------|
|------------------------------|
|------------------------------|
|------------------------------|
|------------------------------|

Im not sure the real quick part is right but its as close as i could get. BUT thos are
right frets.
comments
We did not receive enough feedback on this tab! Please rate:
print report bad tab
1 2 3 4 5
I want to post or [tab]
guest
You may want to rate the tab now too:
select rating
Please do not post tabs as comments. Select "correction" instead!