Oops, an error
Loading. Please wait.

Grim Grinning Ghosts Tab

2,206 views 3 this week
no commentswrite comment
1 2 3 4 5
please rate
add to favorites
launch autoscroll
font size
0
reset
how to read this tab
guitar tuner
Autoscroll
slow
fast
+/-
esc
set tempo
stop
Help us to improve Ultimate-Guitar.com Take our survey!
×
Author
Artist: Buckethead
Song: Grim Grinning Ghosts (Disney Haunted Mansion Ride Theme)
Tuning: EADGBE
Buckethead plays this song live sometimes and I decided to tab it for my own memory but 
it is for everyone else that wanted to learn it.

-----11-11-9--9----------|
-9-9-11-11-10-10-10------|
-8-8-------------9-------|
-------------------------|
-------------------------|
-------------------------|

-----------9-------------|
-9-9-12-12-10-10-10------|
-8-8-11-11----9--9-------|
-------------------------|
-------------------------|
-------------------------|

-11-11-11-11-12-12-12----|
-11-11-11-11-12-12-12----|
-------------------------|
-------------------------|
-------------------------|
-------------------------|

-11-11-11-11-10-10-10----|
-11-11-11-11-10-10-10----|
-------------------------|
-------------------------|
-------------------------|
-------------------------|

-11-----11---11-9---------|
-11-9-9-11-9-11-9-12-11-9-|
----8-8----8------12-11-8-|
--------------------------|
--------------------------|
--------------------------|
Suggest correction
Give kudos to tab author, rate the tab!
1 2 3 4 5
comments
print report bad tab
guest
You may want to rate the tab now too:
select rating
Wanna post a correction for this tab? Suggest correction