Oops, an error
Loading. Please wait.

Halloween Theme Tab

52 views 1 this week
no commentswrite comment
1 2 3 4 5
1 last vote to show rating
add to favorites
launch autoscroll
font size
0
reset
how to read this tab
guitar tuner
Autoscroll
slow
fast
+/-
esc
set tempo
stop
Help us to improve Ultimate-Guitar.com Take our survey!
×
Author
Difficulty
intermediate
About this tab version
This is the version from Buckethead's "backyard solo". Was this info helpful? Yes No
This is the "backyard solo" version of the Halloween Theme. The bass notes
on the low E string are tapped with the right hand.

[Intro]

e|9-----9-----9---10---|9-----9-----9---10---|8-----8-----8---9---|
B|--7-7---7-7---7----7-|--7-7---7-7---7----7-|--6-6---6-6---6---6-|
G|---------------------|---------------------|--------------------|
D|---------------------|---------------------|--------------------|
A|---------------------|---------------------|--------------------|
E|2--------------------|5--------------------|1-------------------|

e|9-----9-----9---10---|9-----9-----9---10---|8-----8-----8---9---|
B|--7-7---7-7---7----7-|--7-7---7-7---7----7-|--6-6---6-6---6---6-|
G|---------------------|---------------------|--------------------|
D|---------------------|---------------------|--------------------|
A|---------------------|---------------------|--------------------|
E|2--------------------|5--------------------|1-------------------|

e|9-----9-----9---10---|9-----9-----9---10---|8-----8-----8---9---|
B|--7-7---7-7---7----7-|--7-7---7-7---7----7-|--6-6---6-6---6---6-|
G|---------------------|---------------------|--------------------|
D|---------------------|---------------------|--------------------|
A|---------------------|---------------------|--------------------|
E|2--------------------|5--------------------|6-------------------|

e|9-----9-----9---10---|9-----9-----9---10---|8-----8-----8---9---|
B|--7-7---7-7---7----7-|--7-7---7-7---7----7-|--6-6---6-6---6---6-|
G|---------------------|---------------------|--------------------|
D|---------------------|---------------------|--------------------|
A|---------------------|---------------------|--------------------|
E|2--------------------|5--------------------|6-------------------|

Suggest correction
Give kudos to tab author, rate the tab!
1 2 3 4 5
comments
print report bad tab
guest
You may want to rate the tab now too:
select rating
Wanna post a correction for this tab? Suggest correction