Oops, an error
Loading. Please wait.

Halloween Tab

version 2
version 2

Whole song

Interactive

27,364 views 15 this week
11 commentsread comments
1 2 3 4 5
excellent!
x 16
add to favorites
launch autoscroll
font size
0
reset
how to read this tab
guitar tuner
Tab Pro tools
  • play this tab
  • loop segment
  • change instrument
  • show fretboard
  • metronome
Autoscroll
slow
fast
+/-
esc
set tempo
stop
Contributor
*******************************************************************************
                              Halloween - Buckethead
*******************************************************************************

Your left hand plays the main riff which takes place on the high E and B strings, and 
right hand takes care of the bassline, played on the low E string.

Any corrections, e-mail me at adamdickinson1993@gmail.com or PM me on the UG forums.

NOTE: I tabbed this from watching a video of Buckethead play this on YouTube. It should 
be correct. I added in the part when it moves up to the 11th fret because it adds 
to the riff.

*****************************
* Left Hand Part (Main Riff)*
*****************************

e|-9-----9------10-------|
B|---7-7---7-7------7----|
G|-----------------------|
D|-----------------------|
A|-----------------------|
E|-----------------------|

x2


e|-8-----8-----9---------|
B|---6-6---6-6---6-------|
G|-----------------------|
D|-----------------------|
A|-----------------------|
E|-----------------------|

x2

e|-9-----9------10-------|
B|---7-7---7-7------7----|
G|-----------------------|
D|-----------------------|
A|-----------------------|
E|-----------------------|

x2

e|11-----11-----12--------|
B|---9-9----9-9----9-7----|
G|------------------------|
D|------------------------|
A|------------------------|
E|------------------------|

x2


e|-9-----9------10-------|
B|---7-7---7-7------7----|
G|-----------------------|
D|-----------------------|
A|-----------------------|
E|-----------------------|

x2


e|-8-----8-----9---------|
B|---6-6---6-6---6-------|
G|-----------------------|
D|-----------------------|
A|-----------------------|
E|-----------------------|

*******************************
* Right Hand Part (Bass Riff) *
*******************************

NOTE: You repeat this riff for the duration of the main riff.


e|-----------------------|
B|-----------------------|
G|-----------------------|
D|-----------------------|
A|-----------------------|
E|-2--2/5--5\1-----------|

When you get to the first fret, to repeat the riff you slide to the second fret.

- In other versions, the right hand part has been modified like this:


e|-----------------------|
B|-----------------------|
G|-----------------------|
D|-----------------------|
A|-----------------------|
E|-2--2/5--5/9-9/1-------|

*****
*Key*
*****

/ = Slide Up
\ = Slide Down
comments
print report bad tab
11 comments total. Showing first comments.
+1 reply
xxjexx wrote on April 9 2007, 06:43 pm

its freakin amazing! thank you so much for posting this!

+1 reply
AdamDK wrote on April 18 2007, 01:35 pm

No problem mate, happy you enjoy it.

+1 reply
dagothdebo wrote on June 27 2007, 03:48 pm

hell yea! i've been waiting for somebody to do this

I want to post or [tab]
guest
You may want to rate the tab now too:
select rating
Please do not post tabs as comments. Select "correction" instead!