Oops, an error
Loading. Please wait.

Halloween Tab

version 4
version 4

Whole song

Interactive

949 views 3 this week
no commentswrite comment
1 2 3 4 5
excellent!
x 1
add to favorites
launch autoscroll
font size
0
reset
how to read this tab
guitar tuner
Tab Pro tools
  • play this tab
  • loop segment
  • change instrument
  • show fretboard
  • metronome
Autoscroll
slow
fast
+/-
esc
set tempo
stop
Contributor
Band: Buckethead
Song: Halloween Theme
Album: n/s

This is tabs from Bucketheads video of him playing the halloween theme using both hands, 
hammer ons and pull offs. Tapping for the most part.

Example check out my video:
http://www.youtube.com/watch?v=A8O7Uag-bdM&feature=channel_page

E|-9-----9-----9---10----|-9-----9-----9---10----|
B|---7-7---7-7---7----7--|---7-7---7-7---7----7--|
G|-----------------------|-----------------------|
D|-----------------------|-----------------------|
A|-----------------------|-----------------------|
E|-----------------------|-----------------------|

*Depending if your right/left handed, above is what you would play when you play notes. 
part below is played with your strumming hand. Again watch the vdeo if need be.

E|-----------------------|-----------------------|
B|-----------------------|-----------------------|
G|-----------------------|-----------------------|
D|-----------------------|-----------------------|
A|-----------------------|-----------------------|
E|-2---------------------|-5---------------------|

E|-8-----8-----8---9----8-----8-----8---9--------|
B|---6-6---6-6---6---6----6-6---6-6---6---6------|
G|-----------------------------------------------|
D|-----------------------------------------------|
A|-----------------------------------------------|
E|-----------------------------------------------|

E|-----------------------------------------------|
B|-----------------------------------------------|
G|-----------------------------------------------|
D|-----------------------------------------------|
A|-----------------------------------------------|
E|-6---ringout-----------------------------------|

E|-7-----7-----7---8---|-7-----7-----7---8---|
B|---5-5---5-5---5---5-|---5-5---5-5---5---5-|
G|---------------------|---------------------|
D|---------------------|---------------------|
A|---------------------|---------------------|
E|---------------------|---------------------|

E|---------------------|---------------------|
B|---------------------|---------------------|
G|---------------------|---------------------|
D|---------------------|---------------------|
A|---------------------|---------------------|
E|-0-------------------|-3-------------------|

E|-6-----6-----6---7----6-----6-----6---7----|
B|---4-4---4-4---4---4----4-4---4-4---4---4--|
G|-------------------------------------------|
D|-------------------------------------------|
A|-------------------------------------------|
E|-------------------------------------------|

E|-------------------------------------------|
B|-------------------------------------------|
G|-------------------------------------------|
D|-------------------------------------------|
A|-------------------------------------------|
E|-4--Ringout--------------------------------|

E|-14-----14-----14---15----|
B|---12-12--12-12---12---12-|
G|--------------------------|
D|--------------------------|
A|--------------------------|
E|--------------------------| Repeat.

E|----------------------------------------|
B|----------------------------------------|
G|----------------------------------------|
D|----------------------------------------|
A|-2---------5----------7----------9------|
E|----------------------------------------|
comments
We did not receive enough feedback on this tab! Please rate:
print report bad tab
1 2 3 4 5
I want to post or [tab]
guest
You may want to rate the tab now too:
select rating
Please do not post tabs as comments. Select "correction" instead!