Oops, an error
Loading. Please wait.

Hog Bitch Stomp Tab

version 3
version 3

Whole song

Interactive

6,540 views 1 this week
2 commentsread comments
1 2 3 4 5
accurate
x 4
add to favorites
launch autoscroll
font size
0
reset
how to read this tab
guitar tuner
Tab Pro tools
  • play this tab
  • loop segment
  • change instrument
  • show fretboard
  • metronome
Autoscroll
slow
fast
+/-
esc
set tempo
stop
Contributor
this is just the end you can find the beginning on another tab
|-3--3--3----3-----3------------------3-----3---------------------|
|-0--1--2----3-----3--------3--3--3---3-----3--------3------3-----|
|------------6h7---6h7---7-----7------6h7---6h7---7-----7---------|
|-----------------------------------------------------------------|
|-----------------------------------------------------------------|
|-----------------------------------------------------------------|

|-3--3--3----3-----3------------------3-----3---------------------|
|-0--1--2----3-----3--------3--3--3---3-----3--------3------3-----|
|------------6h7---6h7---7-----7------6h7---6h7---7-----7---------|
|-----------------------------------------------------------------|
|-----------------------------------------------------------------|
|-----------------------------------------------------------------|

|-3-------3--------------------------------------------------------|
|-3-------3----------------3-------------------------8-------------|
|-6h7-----6h7-----0---4-------4-------------------------7----------|
|------------------------------5----------------------------5------|
|-----------------------------------------6-----7--------------7---|
|-------------------------------------0---------0------------------|

|------------------------------------------------------------------|
|----------8---8------------------0--------0-----------------------|
|-------7----------7-----------0--------0------------0-------------|
|----5-----------------5---8---------7-----------------------------|
|-7--------------------------------------------7p5----------6------|
|--------------------------------------------------------0---------|

|-----------------------------------------------------------------|
|-------0--------0---------------------------------------7------7-|
|----0--------0-----------0-----0--0------------6h7---------------|
|-8--------7---------------------------3p2---0--------0------0----|
|-------------------7p5-------------------------------------------|
|-----------------------------------------------------------------|

|-----------------------------------------------------------------|
|-------------------7---------------------------------------------|
|--6h7--6h7----------------0--------------------------------------|
|--0----0------0--------------------------------------------------|
|-----------------------7-----------------------------------------|
|-----------------------------------------------------------------|
chicken picking
|-9--------------------------9----------------------------------------|
|------------8-----5-----5-------------8-----5------5-----------------|
|-----7---------------7----------7---------------7---------rpeat------|
|--------6------6-------------------6-----6---------------------------|
|-7--------------------------7----------------------------------------|
|-0--------------------------0----------------------------------------|

|---------------------------------------------------------------------|
|-----------------5-------8---7---5-----------------------------------|
|--------6\5------------------------------6---------repeat------------|
|--------7\6--/7------7---7---7---7-------7---------------------------|
|-0-------------------------------------------------------------------|
|---------------------------------------------------------------------|

|---------7--------5--------4-----------------------------------------------|
|-------7--------5--------4-------------------------------------------------|
|-----8--------6--------4-------------------------------0--0----------------|
|---9--------7--------6------------------2--2---2p0---------------2--2p0----|
|-----------------------------------------------------2--------2------------|
|-----------------------------3b4-----0----------------------------------3--|

|----------------2---2--------------------------------0-0-------------|
|----------0-------------0----------------------12---------12---------|
|-------2-----2-------------2----------------11----11---------11------|
|----1-------------------------1----------12----------------------12--|
|-2------------------------------------11-----------------------------|
|---------------------------------------------------------------------|

|-----------0--0---------9p7-------------------------0--------------|
|-------8---------8-----------8-------------12----------12----------|
|-----6---6---------6-------------------11------11----------11------|
|---7-------------------------------10--------------------------10--|
|-0-----------------------------------------------------------------|
|------------------------------------8------------------------------|

|----6--6b--6p3-------------------------------------------------------------|
|----5--5b--5p3------5----5h6p5p3-------5------3b---------------------------|
|--------------------5----5h6p5p3-------5------3b------4--3--4--------------|
|-----------------5-------------------5------5---------5--4--5--------------|
|---------------------------------------------------------------------------|
|---------------------------------------------------------------------------|

|----------3---------------------------------------------------------------|
|-3--2--3--3----3---3------------------------------------------------------|
|-4--3--4-------4---4------------------------------------------------------|
|---------------5---5------------------------------------------------------|
|---------------5---5------------------------------------------------------|
|--------------------------------------------------------------------------|
comments
print report bad tab
2 comments total.
0 reply
hom-sha-bom wrote on June 27 2008, 05:39 pm

thanks for tabbing this now i can actually play the whole damn song, keep it up

0 reply
rammsteinspiel wrote on September 3 2009, 06:21 pm

i cant do the notes of the chiken picking as fast as the song goes :S
r u shre its that way?
i think i see alot more notes than the song haves in that part

I want to post or [tab]
guest
You may want to rate the tab now too:
select rating
Please do not post tabs as comments. Select "correction" instead!