Oops, an error
Loading. Please wait.

I Love My Parents Tab

version 2
version 2

Whole song

Interactive

6,179 views 15 this week
1 commentread comment
1 2 3 4 5
excellent!
x 5
add to favorites
launch autoscroll
font size
0
reset
how to read this tab
guitar tuner
Tab Pro tools
  • play this tab
  • loop segment
  • change instrument
  • show fretboard
  • metronome
Autoscroll
slow
fast
+/-
esc
set tempo
stop
Contributor
Difficulty
intermediate
-------------------------------------------------------------------------------
                             I LOVE MY PARENTS - Buckethead
-------------------------------------------------------------------------------
Tabbed by: Tyler J
Email: full_metalOrange AT hotmail DOT com

Tuning: Standard

(This is the Giant Robot version not the BucketheadLand version)

I must say I'm sorry about the way this looks and the spacing of the bars.
I used guitar pro to tab it but posted it text wise so others can view it easy.



E|--------------------------|------------------------|
B|--13----------------12----|------------------------|
G|--------12----------------|--12----------12--------|
D|--------------14----------|--------14----14--------|
A|--15----------------------|--------------15--------|
E|--------------------------|------------------------|
              
---------------------------|--------------------------|-------------------|
--13-----------------12----|--------------12s----8----|--8----------------|
--------12-----------------|--12----------------------|-------------------|
--------------14s----12----|--------12----------------|-------------------|
---0-----------------------|--------------------------|--0----------------|
---------------------------|--------------------------|-------------------|

-------------------------|-----------------------|-----------------------------|
--12s----8---------------|-----------------------|--10----10-------10--10------|
-------------------------|-----------------------|-----------------------------|
-------------------------|-----------------------|-----------------------------|
-------------------------|-----------------------|---8--------8---------8------|
---0--------0-------0----|-----0-------0----0----|-----------------------------|
  
--------------------------|------------------------------|
--10----------------------|--12s--13s--12s--8------------|
--------------------------|------------------------------|
--------------------------|------------------------------|
-------8--------8----8----|------------------------------|
--------------------------|---0-------------0-------0----|
               
-----------------------|--------------------------|
-----------------------|--10p--8----8----------8--|
-----------------------|-----------------10-------|
-----------------------|--------------------------|
-----------------------|---8----------------------|
-----0-------0----0----|--------------------------|
   
-------------------------|----------<>12------------|--20----19----15---------|
--13----12---------------|--<>12--------------------|-------------------------|
-------------------------|--------------------------|--17----16----12---------|
--10-----9----12----0----|--------------------------|-------------------------|
-------------------------|--------------------------|--------------------0----|
-------------------------|--------------------------|-------------------------|
  
------------------------|--20----19----15----13----|
----------13------------|--------------------13----|
------16----------------|--17----16----12----14----|
--14--------------------|--------------------15----|
------------------------|--------------------------|
------------------------|--------------------------|
   
--15--13--12--13----------13--|-----15--13--13--12--13--12--10--|
--------------------------13--|---------------------------------|
--------------------------14--|---------------------------------|
--------------------------15--|---------------------------------|
------------------------------|---------------------------------|
------------------------------|---------------------------------|
               
--12-------------------|-------------8--------|
-----------------------|----------------------|
-----------------------|--------9-------------|
-----------------------|--12------------------|
-----------------10----|----------------------|
------------8----------|----------------------|
                 
--------------------------|------------------------|
--13----------------12----|------------------------|
--------12----------------|--12----------12--------|
--------------14----------|--------14----14--------|
--15----------------------|--------------15--------|
--------------------------|------------------------|
               
---------------------------|--------------------------|-------------------|
--13-----------------12----|--------------12s----8----|--8----------------|
--------12-----------------|--12----------------------|-------------------|
--------------14s----12----|--------12----------------|-------------------|
---0-----------------------|--------------------------|--0----------------|
---------------------------|--------------------------|-------------------|
 
-------------------------|-----------------------|-----------------------------|
--12s----8---------------|-----------------------|--10----10-------10--10------|
-------------------------|-----------------------|-----------------------------|
-------------------------|-----------------------|-----------------------------|
-------------------------|-----------------------|---8--------8---------8------|
---0--------0-------0----|-----0-------0----0----|-----------------------------|
   
--------------------------|------------------------------|
--10----------------------|--12s--13s--12s--8------------|
--------------------------|------------------------------|
--------------------------|------------------------------|
-------8--------8----8----|------------------------------|
--------------------------|---0-------------0-------0----|
               
-----------------------|--------------------------|
-----------------------|--10p--8----8----------8--|
-----------------------|-----------------10-------|
-----------------------|--------------------------|
-----------------------|---8----------------------|
-----0-------0----0----|--------------------------|
           
-------------------------|--------------------10----|--12------------------|
-------------------------|--------------------------|--------13------------|
-------------------------|--------------12----------|----------------------|
-------------------10----|--------14----------------|----------------------|
-------------------------|--10----------------------|----------------------|
--8----10----12----------|--------------------------|----------------------|

--------------------------|------------------------|---------------------------|
--13----------------12----|------------------------|--13-----------------12----|
--------12----------------|--12----------12--------|--------12-----------------|
--------------14----------|--------14----14--------|--------------14s----12----|
--15----------------------|--------------15--------|---0-----------------------|
--------------------------|------------------------|---------------------------|
   
--------------------------|-------------------|-------------------------|
--------------12s----8----|-------------------|--12s----8---------------|
--12----------------------|-------------------|-------------------------|
--------12----------------|-------------------|-------------------------|
--------------------------|--0----------------|-------------------------|
--------------------------|-------------------|---0--------0-------0----|

-----------------------|-----------------------------|
-----------------------|--10----10-------10--10------|
-----------------------|-----------------------------|
-----------------------|-----------------------------|
-----------------------|---8--------8---------8------|
-----0-------0----0----|-----------------------------|
    
--------------------------|------------------------------|
--10----------------------|--12s--13s--12s--8------------|
--------------------------|------------------------------|
--------------------------|------------------------------|
-------8--------8----8----|------------------------------|
--------------------------|---0-------------0-------0----|
               
-----------------------|--------------------------|
-----------------------|--10p--8----8----------8--|
-----------------------|-----------------10-------|
-----------------------|--------------------------|
-----------------------|---8----------------------|
-----0-------0----0----|--------------------------|
   
-------------------------|----------<>12------------|--20----19----15---------|
--13----12---------------|--<>12--------------------|-------------------------|
-------------------------|--------------------------|--17----16----12---------|
--10-----9----12----0----|--------------------------|-------------------------|
-------------------------|--------------------------|--------------------0----|
-------------------------|--------------------------|-------------------------|
    
------------------------|--20----19----15----13----|
----------13------------|--------------------13----|
------16----------------|--17----16----12----14----|
--14--------------------|--------------------15----|
------------------------|--------------------------|
------------------------|--------------------------|                                  
  
--15--13--12--13----------13--|-----15--13--13--12--13--12--10--|
--------------------------13--|---------------------------------|
--------------------------14--|---------------------------------|
--------------------------15--|---------------------------------|
------------------------------|---------------------------------|
------------------------------|---------------------------------|
                
--12-------------------|-------------8--------|
-----------------------|----------------------|
-----------------------|--------9-------------|
-----------------------|--12------------------|
-----------------10----|----------------------|
------------8----------|----------------------|
             
--------------------------|------------------------|
--13----------------12----|------------------------|
--------12----------------|--12----------12--------|
--------------14----------|--------14----14--------|
--15----------------------|--------------15--------|
--------------------------|------------------------|
                
---------------------------|--------------------------|-------------------|
--13-----------------12----|--------------12s----8----|--8----------------|
--------12-----------------|--12----------------------|-------------------|
--------------14s----12----|--------12----------------|-------------------|
---0-----------------------|--------------------------|--0----------------|
---------------------------|--------------------------|-------------------|

-------------------------|-----------------------|-----------------------------|
--12s----8---------------|-----------------------|--10----10-------10--10------|
-------------------------|-----------------------|-----------------------------|
-------------------------|-----------------------|-----------------------------|
-------------------------|-----------------------|---8--------8---------8------|
---0--------0-------0----|-----0-------0----0----|-----------------------------|
     
--------------------------|------------------------------|
--10----------------------|--12s--13s--12s--8------------|
--------------------------|------------------------------|
--------------------------|------------------------------|
-------8--------8----8----|------------------------------|
--------------------------|---0-------------0-------0----|
                
-----------------------|--------------------------|
-----------------------|--10p--8----8----------8--|
-----------------------|-----------------10-------|
-----------------------|--------------------------|
-----------------------|---8----------------------|
-----0-------0----0----|--------------------------|

-------------------------|--------------------10----|--12------------------|
-------------------------|--------------------------|--------13------------|
-------------------------|--------------12----------|----------------------|
-------------------10----|--------14----------------|----------------------|
-------------------------|--10----------------------|----------------------|
--8----10----12----------|--------------------------|----------------------|

comments
print report bad tab
1 comment total.
0 reply
lVlaniac wrote on November 17 2007, 07:40 am

great song i always wanted to lean it

I want to post or [tab]
guest
You may want to rate the tab now too:
select rating
Please do not post tabs as comments. Select "correction" instead!