Oops, an error
Loading. Please wait.

Iceman Tab

version 2
version 2

Whole song

Interactive

886 views 3 this week
no commentswrite comment
1 2 3 4 5
3 more votes to show rating
add to favorites
launch autoscroll
font size
0
reset
how to read this tab
guitar tuner
Autoscroll
slow
fast
+/-
esc
set tempo
stop
Help us to improve Ultimate-Guitar.com Take our survey!
×
-----------------------------------------------------------------------------
			     Iceman – Buckethead
-----------------------------------------------------------------------------
Tabbed by: the.insomniac247

Tuning: Standard

		Part 1 - 0:00 to 0:13
e|---------------------------------------------------------------------|
B|---------------------------------------------------------------------|
G|---------------------------------------------------------------------| x4
D|-7--5--7--8----------------8p7---------------------------------------|
A|-5--3--5--6-----------8-8-------8------------------------------------|
E|-------------8-8-10-10-----------------------------------------------|

		Part 2 – 0:14 to 0:26
Repeat next 2 riffs 1 time each
e|-----------------------------------------------------------------|
B|-----------------------------------------------------------------|
G|-----------------------------------------------------------------|
D|-7-----5p7--7-----5p7--7-----5p7-7---7h8p7-----------------------|
A|---5----------5----------5---------5-------8---------------------|
E|-----5----------5----------5-------------------------------------|

e|-----------------------------------------------------------------|
B|-----------------------------------------------------------------|
G|-----------------------------------------5-----------------------|
D|-7----5p7--7-----5p7--7-----5p7-7-7----7----8p7h8p7--------------|
A|---5---------5----------5-----------5----------------------------|
E|-----5---------5----------5-----------5--------------------------|

		Part 3 – 0:27 to 0:39
e|-----------------------------------------------------------------|
B|-----------------------------------------------------------------|
G|-----------------------------------------------------------------|   x2
D|-7-7-7/5/7------------7-7-7-5-7-----5-3--------------------------|
A|-5-5-5/3/5--3-5-8-7---5-5-5/3/5-3-5-3-1--------------------------|
E|------------1-3-6-5-------------1-3------------------------------|

Repeat Part 1 – 0:40 to 0:53

		Part 4 – 0:54 to 1:06
e|------------------------------------------------------------------|
B|----13----13----13-13---13---------13----13-----------------------|
G|-------10-------10--------------------10--------------------------|  x4
D|-12----------14------14----14p12--12------------------------------|
A|------------------------------------------------------------------|
E|------------------------------------------------------------------|

Repeat Part 2 – 1:07 to 1:20

Repeat Part 3 for length of solo – 1:20 to 1:47


Repeat Part 1 till end of song & end on
e|----------------------------------------------------------------------------|
B|----------------------------------------------------------------------------|
G|-7b-------------------------------------------------------------------------|
D|-7b-------------------------------------------------------------------------|
A|-5b-------------------------------------------------------------------------|
E|----------------------------------------------------------------------------|


| /  slide up
| \  slide down
| h  hammer-on
| p  pull-off
| ~  vibrato
| +  harmonic
| x  Mute note
| b  Bend
Suggest correction
Give kudos to tab author, rate the tab!
1 2 3 4 5
comments
print report bad tab
guest
You may want to rate the tab now too:
select rating
Wanna post a correction for this tab? Suggest correction