Oops, an error
Loading. Please wait.

In Search Of Inbred Mountain Tab

version 1
version 1

Whole song

Interactive

3,748 views 1 this week
4 commentsread comments
1 2 3 4 5
accurate
x 7
add to favorites
launch autoscroll
font size
0
reset
how to read this tab
guitar tuner
Autoscroll
slow
fast
+/-
esc
set tempo
stop
Help us to improve Ultimate-Guitar.com Take our survey!
×
Author
Brian 1.0 1,117
Song: In Search Of Inbred Mountain
Artist: Buckethead
Album: Inbred Mountain
Tabbed by: Brian Dumont (Brian0192837465@hotmail.com)

Another fun one...some parts might need practice but quite easy. Post corrections if you 
there's a problem or e-mail me. Have fun!

0:00 - 0:10
------------
Use an octave pedal to get the lower ocatve
                                     x3
E|---18-17---16-----------------------|
B|---------------17---16-15-14--------|
G|-----------------------------17-16--|
D|------------------------------------|
A|------------------------------------|
E|------------------------------------|


0:11-0:42
---------
                                    x4

E|------------------------------------|
B|------------------------------------|
G|------------------------------------|
D|----------88886666------------------|
A|-------888--------99999999910978986-|
E|-666666-----------------------------|

                                                                          x2
E|------------------------------------|------------------------------------|
A|------------------------------------|------------------------------------|
D|------------------------------------|------------------------------------|
G|---------3333-----------------------|---------3333----------5556-65------|
B|-------33----4444333333-------------|-------33----4444333333----3--------|
E|-111111----------------4433330000---|-111111-----------------------------|


                                     x2
E|------------------------------------|------------------------------------|
B|------------------------------------|------------------------------------|
G|------------------------------------|------------------------------------|
D|----------88886666------------------|----------88886666------------------|
A|-------888--------99999999910978986-|-------888--------------------------|
E|-666666-----------------------------|-666666-----------------------------|


0:43-1:00
---------


E|-9---8----7---------9---8----7------|-9----8----8---7---9---8--8---7-----|
B|-13--12---11--------13--12---11-----|-13---12---12--11--13--12-12--11----|
G|------------------------------------|------------------------------------|
D|------------------------------------|------------------------------------|
A|------------------------------------|------------------------------------|
E|------------------------------------|------------------------------------|

                                     x2
E|-12-15--13-11-13-15-17----8---8-----|--13-15-17-15-13-11-13-15---8---8---|
B|-16-19--17-15-17-19-21----12--12----|--17-19-21-19-17-15-17-19---12--12--|
G|------------------------------------|------------------------------------|
D|------------------------------------|------------------------------------|
A|------------------------------------|------------------------------------|
E|------------------------------------|------------------------------------|


E|--9---8---7-------------------------|
B|--13--12--11------------------------|
G|------------------------------------|
D|------------------------------------|
A|------------------------------------|
E|------------------------------------|


1:01-1:22
---------

  P.M.---    P.M.                     P.M.---    P.M---------|                     x3
E|------------------------------------|----------------------|
B|------------------------------------|----------------------|
G|------------------------------------|----------------------|
D|------------------------------------|----------------------|
A|-0-0-0-0-10--0-10-12----------------|-0-0-0-0-11--0-11-13--|
E|-0-0-0-0-8---0-8--10----------------|-0-0-0-0-9---0-9--11--|

E|------------------------------------|------------------------------------|
B|------------------------------------|------------------------------------|
G|------------------------------------|------------------------------------|
D|------------------------------------|---------13-------(13)--------------|
A|-0-0-0-0-10--0-10-12----------------|-0-0-0-0-13-------(13)--------------|
E|-0-0-0-0-8---0-8--10----------------|-0-0-0-0-11-------(11)--------------|

E|------------------------------------|------------------------------------|
B|------------------------------------|------------------------------------|
G|------------------------------------|------------------------------------|
D|--11--------------------------------|-(11)-------------------------------|
A|--11--------------------------------|-(11)-------------------------------|
E|--9---------------------------------|-(9)--------------------------------|

  P.M.---    P.M.
E|------------------------------------|
B|------------------------------------|
G|------------------------------------|
D|------------------------------------|
A|-0-0-0-0-10--0-10-12----------------|
E|-0-0-0-0-8---0-8--10----------------|

1:23-1:28
---------
                                                                          x2
E|------------------------------------|------------------------------------|
B|----18-17-17-18----18-17-17-18------|18-17--17-18---18-18-18-------------|
G|-15-------------15---------------15-|---------------15-15-15-------------|
D|------------------------------------|------------------------------------|
A|------------------------------------|------------------------------------|
E|------------------------------------|------------------------------------|

1:29-1:39
---------

  P.M.---    P.M.                     P.M.---    P.M---------|                     x4
E|------------------------------------|----------------------|
B|------------------------------------|----------------------|
G|------------------------------------|----------------------|
D|------------------------------------|----------------------|
A|-0-0-0-0-10--0-10-12----------------|-0-0-0-0-11--0-11-13--|
E|-0-0-0-0-8---0-8--10----------------|-0-0-0-0-9---0-9--11--|


  P.M.---    P.M.                       P.M.---------------------------------|
E|------------------------------------|--------------------------------------|
B|------------------------------------|--------------------------------------|
G|------------------------------------|--------------------------------------|
D|------------------------------------|--------------------------------------|
A|-0-0-0-0-10--0-10-12----------------|-0-0-0-0------------------------------|
E|-0-0-0-0-8---0-8--10----------------|-0-0-0-0------------------------------|

1:40-1:50
---------

                                     x5
E|----------21----------------21------|
B|-------21----21----------21----21---|
G|----19----------19----19----------19|
D|-19----------------19---------------|
A|------------------------------------|
E|------------------------------------|


Play over the first riff with this one after the 2nd repeat

                                     x3
E|----------20----------------20------|
B|-------20----20----------20----20---|
G|----18----------18----18----------18|
D|-18----------------18---------------|
A|------------------------------------|
E|------------------------------------|

1:51-2:13
---------


       P.M.  P.M.   P.M.                    P.M.   P.M.   P.M.
E|------------------------------------|------------------------------------|
B|------------------------------------|------------------------------------|
G|------------------------------------|------------------------------------|
D|-3/5-5-5-6\5-5-7\5-5-6\3--3/5\3-----|-5/7-7-7-8\7-7-10\8-8-8\7--7/8\7----|
A|-1/3-3-3-4\3-3-5\3-3-4\1--1/3\1-----|-3/5-5-5-6\5-5--8\6-6-6\5--5/6\5----|
E|------------------------------------|------------------------------------|

       P.M.   P.M.     P.M.
E|------------------------------------|------------------------------------|
B|------------------------------------|------------------------------------|
G|------------------------------------|------------------------------------|
D|-7/9-9-9-10\9-9-12\10-10-10\9-9/10\9|--6h8-----6h8----6h8-----6h8--------|
A|-5/7-7-7--8\7-7-10\8--8---8\7-7/-8\7|--6-------6------6-------6----------|
E|------------------------------------|------------------------------------|

2:14-2:25
---------

P.M. the G string throughout
                                     x2                                   x2
E|------------------------------------|------------------------------------|
B|---12-9---9-12---14-12---9-12-------|---10-7---7-10---12-10---7-10-------|
G|-9------9------9-------9------9-----|-7------7------7-------7------7-----|
D|------------------------------------|------------------------------------|
A|------------------------------------|------------------------------------|
E|------------------------------------|------------------------------------|

                                     x2                                   x2
E|------------------------------------|------------------------------------|
B|---12-9---9-12---14-12---9-12-------|---10-7---7-10---12-10---7-10-------|
G|-9------9------9-------9------9-----|-7------7------7-------7------7-----|
D|------------------------------------|------------------------------------|
A|------------------------------------|------------------------------------|
E|------------------------------------|------------------------------------|


2:26-3:26
---------
1 2 3 4 5 6
E|----------------------6-------------|------------------------------------|
B|----------------------5-------------|----------------------5-------------|
G|----------------------2-------------|----------------------4-------------|
D|-2----2----2----2-----2-------------|-2----2----2----2-----2-------------|
A|-2----2----2----2-----2-------------|-2----2----2----2-----2-------------|
E|-0----0----0----0-----0-------------|-0----0----0----0-----0-------------|

                                                                          x6
E|----------------------4-------------|------------------------------------|
B|----------------------5-------------|----------------------2>(2.5)-------|
G|----------------------2-------------|----------------------2>(2.5)--2p0--|
D|-2----2----2----2-----4-------------|-2----2----2----2-----2>(2.5)------2|
A|-2----2----2----2-----2-------------|-2----2----2----2-----2-------------|
E|-0----0----0----0-----0-------------|-0----0----0----0-----0-------------|

E|------------------------------------|------------------------------------|
B|------------------------------------|------------------------------------|
G|------------------------------------|------------------------------------|
D|-2----2----2----2--------2----2---2-|--2---------------------------------|
A|-2----2----2----2--------2----2---2-|--2---------------------------------|
E|-0----0----0----0--------0----0---0-|--0---------------------------------|

E|------------------------------------|------------------------------------|
B|------------------------------------|------------------------------------|
G|------------------------------------|------------------------------------|
D|-2----2----2----2--------2----2---2-|--2---------------------------------|
A|-2----2----2----2--------2----2---2-|--2---------------------------------|
E|-0----0----0----0--------0----0---0-|--0---------------------------------|
Suggest correction new What's this?
You can suggest a correction to this tab. Community and Mods will review your correction and vote to approve or reject it.
comments
print report bad tab
4 comments total. Showing first comments.
0 reply
tryhonesty 2,006 wrote on November 1 2009, 12:28 pm

The song isnt in standard tuning, but whatever tuning it is in( i don't know which :( ) this would be correct

0 reply
john flans 19 wrote on March 8 2010, 05:05 pm

this is pretty good,but it,s not in standerd tuning,and a lot of parts in this tab are wrong.if anyone wants the really good tab of this just post a comment and i will do it.

0 reply
chaotiktak 492 wrote on March 5 2011, 02:18 pm

the song is played with a baritone guitar in A# :

A# (low string)

A# (high string)

guest
You may want to rate the tab now too:
select rating
Please do not post tabs as comments. Select "correction" instead!