Oops, an error
Loading. Please wait.

Jam tab

352 views 1 this week
2 commentsread comments
1 2 3 4 5
1 last vote to show rating
add to favorites
×
Save as Personal and add changes to this tab that will be seen only by you. Learn more ›
×
You can save this tab as Personal to edit and correct it or add notes. All changes will be seen only by you. Learn more »
launch autoscroll
font size
0
reset
how to read this tab
guitar tuner
edit
Autoscroll
slow
fast
+/-
esc
set tempo
stop
-------------------------------------------------------------------------------
                             'BUCKETHEAD AND BRAIN JAM'
-------------------------------------------------------------------------------
Tabbed by: dropdeee
E-mail: westcoastflat@hotmail.com

Tuning: half-step and a quarter down
Effect: delay,  Line-6 'Growler' filter


Video to this song:   https://www.youtube.com/watch?v=nvY3_nYRI20
Backing Track:        https://www.youtube.com/watch?v=J1xbdbC-iRs


There are a heap of echoed notes that you'll hear in the intro and verse so 
playing this one correctly takes a little practice. 



  



[Intro]

     barre 8th fret ------ slide to 10th fret for this whole section
eb|--------------------------------------------------------------------------|
Bb|--------------------9p8---------------------------------------------------|
Gb|---------------8-------------8h10/12--------------------------------------|
Db|-------10------------------------------10-----10h12-----------------------|
Ab|----10--------------------------------------------------13p10-11----------|
Eb|--8-----------------------------------------------------------------------|

                    barre 6th fret
eb|----------------------8p6---------------------8---------------------------|
Bb|--------------------6-----6-------------------8---------------------------|
Gb|----------8---8-7-8---------8------------5----5---------------------------|
Db|---------10------------------8p6------------------------------------------|
Ab|-----10-------------------------------6-----------------------------------|
Eb|--8--------------------------------4--------------------------------------|

    barre  8th fret                    barre 6th fret this section
eb|----------------------------------------------------8p6-------------------|
Bb|--------------------------------------------------------------------------|
Gb|---------------8----10/12--10\8-7---7---7-7/8----8---------8--------------|
Db|---------10-------------------------8-------------------------8-----------|
Ab|-----10-------------------------------------------------------------------|
Eb|--8-----------------------------------------------------------------------|

                                   barre 6th\4th
eb|--------------------------------------------------------------------------|
Bb|--------------------------------------------------------------------------|
Gb|---------8---8--7/8-10-8--7------------7--\--5----------------------------|
Db|---------10------------------8---------------6----------------------------|
Ab|-----10-----------------------------8--------6----------------------------|
Eb|--8------------------------------6-----------4----------------------------|



 [Verse]
                        barre 8th fret for this entire section-------------|
eb|--------------------------------------------------------------------------|
Bb|--------------------------------------------------8-----------------------|
Gb|---------8p7-------------------------------------------8------------8h10--|
Db|-----------------8--------8h10----------------10--------------------------|
Ab|-----10--------------8h10-------------------------------------------------|
Eb|--8----------------------------------------8------------------------------|

                               barre  4th  fret
eb|--------------------------------------------------------------------------|
Bb|--------------------------------------------------------------------------|
Gb|------10p8--7---7/8-------------------------------------------------------|
Db|--------------------8~\--------5--6----5----------------------------------|
Ab|--10--------------------------------------6-------------------------------|
Eb|----------------------------4---------------------------------------------|

                                X X X
eb|-------------------------------8---------8---8----8h10p8------------------|
Bb|---------------------------------------------------------8----------------|
Gb|---------------g8/10\8-------8---8---------8---------------8------10/12---|
Db|---------(10)-------------------------------------------------------------|
Ab|-----(10)-----------------------------------------------------------------|
Eb|--(8)---------------------------------------------------------------------|

eb|------------------------------------------------------------8-------------|
Bb|------------------------------------------(8)8-8-8-8---8-8--8-------------|
Gb|-----------8-8---8-8/10--8-7--------------(8)8-8-8-8---8-8----------------|
Db|-----(10)--------------------8\--------6----------------------------------|
Ab|--------------------------------------------------------------------------|
Eb|--(8)-------------------------------4-------------------------------------|
                                             
                                             X X
eb|--------------------------------------------------------------------------|
Bb|------------------------------------------8-8-8---------------------------|
Gb|----------8p7-----------------------------------10-8---7------------------|
Db|---------------8---------8--10--------------------------------------------|
Ab|-----(10)----------8h10---------------------------------------------------|
Eb|--(8)-------------------------------8-------------------------------------|

                            barre 6th fret for this whole section                      
eb|------------------------------------8p6------------------8p6--------------|
Bb|-------------------------------6---------6--6--6--6---6--6--6-------------|
Gb|----------10p8----7-------7h8----8-------8--8--8--8---7--7--7-------------|
Db|----------------------8---------------------------------------------------|
Ab|-----(10)-----------------------------------------------------------------|
Eb|--(8)---------------------------------------------------------------------|

eb|--------------------------------------------------------------------------|
Bb|-----------------------------------4--------------------------------------|
Gb|----------8p7-------------------8--5--------------------------------------|
Db|---------------8-------8h10--10----6---------6--------6-------------------|
Ab|-----(10)---------8h10-------------6------6-------------------------------|
Eb|--(8)------------------------------4--------------------------------------|




 [Chorus]

eb|---------------------------------|--------------------------------|
Bb|---------------------------------|------------8~~-----------------|
Gb|----------0--8~~-----7-----------|---------0---------10p8--7--8---|
Db|-------------------------8-------|--------------------------------|
Ab|---------------------------8h10--|--------------------------------|
Eb|--8~~~---------------------------|--8~~~--------------------------|

eb|---------------------------------|--------------------------------|
Bb|---------------------------------|--------------------------------|
Gb|--------0-(8)/10~~----8p7h8p7-8--|--------------------------------|
Db|---------------------------------|-------------8~~-6~~---6p5------|
Ab|---------------------------------|----------6----------------6h8--|
Eb|--8~~~---------------------------|--4~~~--------------------------|

eb|---------------------------------|--------------------------------|
Bb|---------------------------------|---------------11--11-9---8-----|
Gb|------------0h8---8\7------------|-------------8------------------|
Db|--------------------------8------|---------10---------------------|
Ab|-----10--------------------------|-----10-------------------------|
Eb|--8------------------------------|--8-----------------------------|

     barre 6th fret this section       barre 4th fret
eb|--------------------6---6--------|--------------------------------|
Bb|------------------6-------6------|--------------------------------|
Gb|--------7-----7-7-----------8----|--------------------------------|
Db|---------------------------------|--------8-----6-----------------|
Ab|-----8---------------------------|-----6--------------------------|
Eb|--6------------------------------|--4-----------------------------|



 [Bridge]   Done with a Line-6 'Growler' filter.  Strength of note-pluck
            determines the pitch of the 'Growl' but the fret played 
            determines the underlying rhythm chord.

eb|--------------------------------|----------------------------------|
Bb|--------------------------------|----------------------------------|
Gb|--------------------------------|----------------------------------|
Db|--------------------------------|----------------------------------|
Ab|------------------------X-X-X-X-|----------------------------------|
Eb|--8--8--8-----8-----------------|--4---------------(4)-------------|

                                                 PM-------------------------------|
eb|--------------------------------|------------------------------------------------|
Bb|--------------------------------|------------------------------------------------|
Gb|--------------------------------|------------------------------------------------|
Db|--------------------------------|------------------------------------------------|
Ab|--------------------------------|------------------------------------------------|
Eb|--8--8----------8-8-8------8--8-|-4-------------4-4-4-4-4-4-4-4-4-6-6-6-6-6-6-6--|




 
 [Chorus]

eb|-----------------------------------|-------------------------------|
Bb|-----------------------------------|-------------8~~---------------|
Gb|-------------0-0--8~~---7----------|-------0--0-------10-8-7~~~----|
Db|---------------------------8-------|-------------------------------|
Ab|--8h10-----------------------8h10--|-------------------------------|
Eb|--------8~~~-----------------------|--8~~--------------------------|

eb|--------------------------------|----------------------------------|
Bb|--------------------------------|----------------------------------|
Gb|--------------------------------|-----------------------8-10-8-----|
Db|---------------8~~---6p5h6p5----|------------------8/10--------10--|
Ab|-----------6-----------------6--|----------------6-----------------|
Eb|--4~~~--------------------------|--6~~~~~~~~---8-------------------|

eb|--------------------------------|----------------------------------|
Bb|-----------g7/8~~---------------|-------------fpb11r-11p9-8h9------|
Gb|-------0h8----------7-7h8p7-----|-----------------------------8----|
Db|----------------------------8---|----------8-----------------------|
Ab|--------------------------------|-------10-------------------------|
Eb|--8~~---------------------------|--8~------------------------------|

eb|--------------------------------|----------------------------------|
Bb|--------------------------------|----------------------------------|
Gb|--------------------------------|---------(guitar  fill)-----------|
Db|---------8~---6---5h6-----------|----------------------------------|
Ab|-------6--------6-----6~~~~-----|----------------------------------|
Eb|--4~----------------------------|----------------------------------|



 
 [Outro]   For fun, just play around with various note strengths to 
           get different pitches on the 'Growler' filter while making
           sure to play the correct fret.  

eb|--------------------------------|----------------------------------|
Bb|--------------------------------|----------------------------------|
Gb|--------------------------------|----------------------------------|
Db|--------------------------------|----------------------------------|
Ab|--------------------------------|----------------------------------|
Eb|--8--------(improv)-------------|--4------------(improv)-----------|




***  If you're using the backing track for this song you'll notice the ***
     outro is cut short but I'll spend some time making it full-length
     now that I have the Growler filter effect.  Coming soon..!!








Enjoy and long live the Bucket..!!

************************************

| /   slide up
| \   slide down
| h   hammer-on
| p   pull-off
| ~   vibrato
| x   Mute note
| b   Bend
| pb  Pre-bend
| br  Bend release
| pbr Pre-bend release
| brb Bend release bend
| g   Ghost Note
|( )  Soft Note

************************************





            
            
Suggest correction
Creating personal tab
Creating personal tab
You can edit any tab online and save it as your Personal.

You can edit, replace or remove any tab part or add personal notes – all changes will be seen only by you.

Personal tabs can be accessed anytime from any device, even offline.
Learn more »
Give kudos to tab author, rate the tab!
1 2 3 4 5
comments
print report bad tab
2 comments total.
0 reply
ajanddino 972 Mar 04, 2016 03:19 PM

Awesome tab.

+1 reply
DropDeee 4,141 Mar 04, 2016 06:31 PM

Thanks ajanddino! I could listen to this track forever, it's just awesome.

guest
You may want to rate the tab now too:
select rating
Wanna post a correction for this tab? Suggest correction