Oops, an error
Loading. Please wait.

Jordan Bass Tab

version 1
version 1
10,254 views 6 this week
12 commentsread comments
1 2 3 4 5
excellent!
x 8
add to favorites
launch autoscroll
font size
0
reset
guitar tuner
Tab Pro tools
  • play this tab
  • loop segment
  • change instrument
  • show fretboard
  • metronome
×
Best way to learn
"Jordan"
Autoscroll
slow
fast
+/-
esc
set tempo
stop
Difficulty
intermediate
GJordan>Buckethead---⎪------------------------------------------------|
DMainRiff---------------⎪------------------------4--6--4--------------|
A---------------------------⎪----6-66-6-6--4---6------------------4X--|
E---------------------------⎪-----------------------------------------|


Groove Riff   4X                                                                       
to main

G------------------------------------------------|
D------------------------------------------------|
A------------------8-88-8---8-9--99--9--6-----6--|
E------------------------------------------------|


Solo 1   2X

G--------------------------------|
D--------------------------------|
A----8----6----4-----------------|
E--------------------4----6---8--|


Solo 2   2X

G---------------------------------------------------------|
D---------------------------------------------------------|
A------9----10---------10------7--6-------9-------9---10--|
E---------------------------------------------------------|


Solo 3    2X

G----------------------------------|
D----------------------------------|
A-------8--------------------------|
E--------------------9----------6--|

Solo 4
G---------------------------------------------------------------|
D---------------------------------------------------------------|
A------5------3--1---------3--5-------3-->1-rest------>3-----5--|
E---------------------------------------------------------------|

Solo 5 / groove    2X
G------------------------------------------------------------------------------|
D--- - -----------6--8---------------------------6-8-9-9---8>>>Back to solo 4--|
A--------8--8-------8--8-------6---7-8-8---------------------------------------|
E------------------------------------------------------------------------------|

Solo 6    2X                            >>  punch out back to Groove Riff
G-------------------------------------------------------------------------------|
D-------6--------6---------------------------->6---------------------------->6--|
A--8--------6--------4------6------------->8------>8---->8---->4---->8----------|
E-------------------------------------------------------------------------------|
comments
print report bad tab
12 comments total. Showing first comments.
0 reply
edervjo wrote on February 11 2007, 03:05 pm

standard tuning tab, Bucket tunes down, as to use more open strings for hammer-ons, but this will get the bass in the right spots.
I do not worrry about the number of note or rhythm, just listen and you will figure it out.
edervjo

0 reply
Billy Bass wrote on April 25 2007, 12:26 pm

this ur tab?

0 reply
byob_soad2 wrote on May 25 2007, 03:51 pm

wtf does the beginning mean

I want to post or [tab]
guest
You may want to rate the tab now too:
select rating
Please do not post tabs as comments. Select "correction" instead!