Oops, an error
Loading. Please wait.

Jordan Tab

version 2
version 2
165,241 views 90 this week
139 commentsread comments
1 2 3 4 5
x 137
add to favorites
launch autoscroll
font size
0
reset
how to read this tab
guitar tuner
backing track
0:00
0:00
×
Best way to learn
"Jordan"
Autoscroll
slow
fast
+/-
esc
set tempo
stop
Difficulty
advanced
Artist: Buckethead
Song: Jordan

(Q=116)
$
4/4
(Gtr 1)
                                             (4x)
e|------------------------------------------|-|
B|o----------------------------------------o|-|
G|------------------------------------------|-|
D|------------------------------------------|-|
A|o-------------------------------10-12-10-o|-|
E|--12-0-0-12-0-12-0-12-0-0-10-12-----------|-|

(Gtr 3)
                                            (4x)
G|------------------------------------------|-|
D|o----------------------------------------o|-|
A|o----------------------------------------o|-|
E|------------------------------------------|-|

                                                   (7x)
e|------------------------------------------------|
B|o----------------------------------------------o|
G|------------------------------------------------|
D|------------------------------------------------|
A|o-------------------------------------10-12-10-o|
E|--12-0-0-12---0--12-0-12---0--0-10-12-----------|

                                                 (7x)
G|------------------------------------------------|
D|o----------------------------------------------o|
A|o-------------------------------------10-12-10-o|
E|--12-----12-(12)-12---12-(12)---10--------------|

e|-----------------------------------------|---------------------------------|
B|-----------------------------------------|o--------------------------------|
G|-----------------------------------------|---------------------------------|
D|-----------------------------------------|--4-4----------------------------|
A|-----------------------------------------|o--------------------------------|
E|-12-0-0-12-(12)-12-12-12-12-12-12-12-12--|------2-2--3--(3)-3--3--0-0--0-0-|

G|-----------------------------------------|---------------------------------|
D|-----------------------------------------|o--------------------------------|
A|-----------------------------------------|o-9---9---10-(10)---10-----------|
E|-----------------------------------------|-----------------------12---12---|

e|--------------------------------------|--------------------------------|
B|--------------------------------------|--------------------------------|
G|--------------------------------------|--------------------------------|
D|-4-4-4--------------------------------|-4-4----------------------------|
A|-------------------------------2--2-2-|-----------------------2-2--2-2-|
E|-------2-2-2--3-3---3--3--3-3--0--0-0-|-----2-2--3--(3)-3--3--0-0--0-0-|

G|--------------------------------------|--------------------------------|
D|--------------------------------------|--------------------------------|
A|-9-------9---10---(10)---10-----------|-9---9---10-(10)---10-----------|
E|------------------------------12-12---|----------------------12---12---|

                               D.S.
e|----------------------------------------|
B|---------------------------------------o|
G|----------------------------------------|
D|-4-4-4----------------------------------|
A|-------------------------------2--2----o|
E|-------2-2-2--3-3---3--3--3-3--0--0-----|

G|----------------------------------------|
D|---------------------------------------o|
A|-9-------9---10---(10)---10------------o|
E|------------------------------12-12-----|

[Guitar Break]
e|----------------------------------16-------17----------------18----------|
B|-------------------------16----15-------16----------17----17----------18-|
G|----------------16----15----14-------15----------16----16----------17----|
D|-------16----15----14-------------------------15----------------16-------|
A|----15----14-------------------------------------------------------------|
E|-14----------------------------------------------------------------------|

G|-------------------------------------------------------------------------|
D|-------------------------------------------------------------------------|
A|-------------------------------------------------------------------------|
E|-------------------------------------------------------------------------|
                                                          
e|----------------------------------19-------20-------21-22---|
B|-------------------------19----18-------19-------20----21---|
G|----------------19----18----17-------18-------19------------|
D|-------19----18----17---------------------------------------|
A|----18----17------------------------------------------------|
E|-17---------------------------------------------------------|

G|------------------------------------------------------------|
D|------------------------------------------------------------|
A|------------------------------------------------------------|
E|------------------------------------------------------------|

[Guitar Solo]
   F#5
e|--------------------------|---------------------------------------------|
B|-17-----------------------|---------------------------------------------|
G|-16b18r=====(16)-14-16-14-|-14-13b14==(13)r(13)-------------------------|
D|--------------------------|---------------------16-14-------------------|
A|--------------------------|---------------------------16-14-12-14-16----|
E|--------------------------|------------------------------------------14-|

G|--------------------------|---------------------------------------------|
D|--------------------------|---------------------------------------------|
A|--9-----------7-----------|---------------------------------------------|
E|--------------------------|-10----------------------------7--------9----|

e|-----------------------------------|--------------------------------------------|
B|-------------17b19-(17)-(17)-17p15-|-14h15-17-----------------------------------|
G|-16b18----16-----------------------|----------14-(14)-13h14p13------------------|
D|-----------------------------------|---------------------------16-16-14-14-16---|
A|-----------------------------------|--------------------------------------------|
E|-----------------------------------|--------------------------------------------|

G|-----------------------------------|--------------------------------------------|
D|-----------------------------------|--------------------------------------------|
A|--9-----------------------7--------|--------------------------------------------|
E|-----------------------------------|-10----------------------7-----------9------|

e|-------------------------------------------------|
B|-------------------------------------------------|
G|----14s13----13s14----14-------16-18----18-------|
D|-16----14-14-14s16-16----18-18----19-19----18-18-|
A|-------------------------------------------------|
E|-------------------------------------------------|

G|-------------------------------------------------|
D|-------------------------------------------------|
A|--9-----------------------------------7----------|
E|-------------------------------------------------|

e|---------------------------------------|
B|----------------------------------/18--|
G|-16s14----14-13----13s14-14s16-16------|
D|----16-16----14-14-14s16-16s18-18------|
A|---------------------------------------|
E|---------------------------------------|

G|---------------------------------------|
D|---------------------------------------|
A|---------------------------------------|
E|-10-----------------------7-----9------|

e|-21-17----21-17----19-16----19-16----17-14----17-14----16-12----16-12----|
B|-------19-------17-------17-------17-------14-------14-------12-------12-|
G|-------------------------------------------------------------------------|
D|-------------------------------------------------------------------------|
A|-------------------------------------------------------------------------|
E|-------------------------------------------------------------------------|

G|-------------------------------------------------------------------------|
D|-------------------------------------------------------------------------|
A|--9-----------------------------------------------------7----------------|
E|-------------------------------------------------------------------------|

e|-14-10----14-10----12-9----12-9-14-10-7---10-7-------------|
B|-------10-------12------10--------------7------7-----------|
G|-----------------------------------------------------------|
D|-----------------------------------------------------------|
A|-------------------------------------------------/12b14\---|
E|-----------------------------------------------------------|

G|-----------------------------------------------------------|
D|-----------------------------------------------------------|
A|-----------------------------------------------------------|
E|-10---------------------------------7--------------9-------|

e|------------------------------------------|
B|----------------------------------18tr12--|
G|--------------------------18tr12----------|
D|------------------17tr12------------------|
A|----------17tr12--------------------------|
E|-10-12-11---------------------------------|

G|------------------------------------------|
D|------------------------------------------|
A|-10---------------------------------------|
E|------------------------------------------|

e|-18tr12--19tr13---------------------------------------------------|
B|-----------------19tr13---13\-------------------------------------|
G|------------------------------------------------------------------|
D|----------------------------------17-12---------------------------|
A|----------------------------------------16-12-11------------------|
E|-------------------------------------------------19-15-18-14-13---|

G|------------------------------------------------------------------|
D|------------------------------------------------------------------|
A|-11---------------------------------------------------------------|
E|-------------------------/13---12---------------------------------|

e|------------------------------20tr15---|-21tr16-------------------------------|
B|----------------------20tr15-----------|---------20tr15-----------------------|
G|---------------20tr15------------------|-----------------19tr14---------------|
D|--------20tr15-------------------------|--------------------------------------|
A|-20tr15--------------------------------|-------------------------/10b12-(10)\-|
E|---------------------------------------|--------------------------------------|

G|---------------------------------------|--------------------------------------|
D|---------------------------------------|--------------------------------------|
A|-10------------------------------------|-11-----------------------------------|
E|---------------------------------------|--------------------------------------|

e|---------------------------------------------------------------------|
B|---------------------------------------------------------------------|
G|-----------------------------------------------------20tr15----------|
D|------------------------------------------18-0-13-16-----------------|
A|---------------------------10-12-16-10-12----------------------------|
E|--9-12-14-9-12-15-10-12-17-----------------------------------19tr14--|

G|---------------------------------------------------------------------|
D|---------------------------------------------------------------------|
A|-10------------------------------------------------------------------|
E|---------------------------------------------------------------------|

e|----------------------------------20tr15----21tr16---|
B|--------------------------20tr15---------------------|
G|-----------------20tr15------------------------------|
D|---------19tr14--------------------------------------|
A|-18tr13----------------------------------------------|
E|-----------------------------------------------------|

G|-----------------------------------------------------|
D|-----------------------------------------------------|
A|-11--------------------------------------------------|
E|-------------------------/13-------------12----------|

e|--------21tr16-------------|------------------------------------------|
B|-20tr15----------20tr15----|-14tr8-14tr9-14tr10-14tr11-14tr12--(12)\--|
G|---------------------------|------------------------------------------|
D|---------------------------|------------------------------------------|
A|---------------------------|------------------------------------------|
E|---------------------------|------------------------------------------|

G|---------------------------|------------------------------------------|
D|---------------------------|------------------------------------------|
A|-10------------------------|-11---------------------------------------|
E|---------------------------|------------------------------------------|

e|-17b19r(17)-16-17-16-14----14-17-14-16-17-16-14----------------------------------|
B|------------------------17----------------------17-15-14-15-14-14-15-14-12-------|
G|---------------------------------------------------------------------------14-13-|
D|---------------------------------------------------------------------------------|
A|---------------------------------------------------------------------------------|
E|---------------------------------------------------------------------------------|

G|---------------------------------------------------------------------------------|
D|---------------------------------------------------------------------------------|
A|--9------------------------------------------------------------------------------|
E|---------------------------------------------------------------------------------|

e|-------------------------------------------------------------------------------------------------|
B|-------------------------------------------------------------------------------------------------|
G|-14-13-11----11-14-11-13h14p13p11----------------------------------------------------------------|
D|----------14----------------------14-12-11-14-12-14-12-------------------------------------------|
A|-------------------------------------------------------16-14-12----------------------------------|
E|----------------------------------------------------------------16-14b17==(14)r(14)-12-14-16-12--|

G|-------------------------------------------------------------------------------------------------|
D|-------------------------------------------------------------------------------------------------|
A|-------------------------------------------------------------------------------------------------|
E|-10--------------------------------------------7-------------------------------------------------|

e|------------------------------------------------------------------------14-16-17-(17)-16-14------|
B|------------------------------------------------------14-15-17-14-15-17---------------------17---|
G|------------------------------------13h14h16-13h14-17--------------------------------------------|
D|-------------12-x-12h14h16-12-14-16--------------------------------------------------------------|
A|-12-12-14-16-------------------------------------------------------------------------------------|
E|-------------------------------------------------------------------------------------------------|

G|-------------------------------------------------------------------------------------------------|
D|-------------------------------------------------------------------------------------------------|
A|--9----------------------------------------------------------------------------------------------|
E|-------------------------------------------------------------------------------------------------|

                                                                            TP
e|-------------14-17-14-16-17-16-14----------------14-16-17-16-14----------------|
B|-15-14-15-17----------------------17-15-14-15-17----------------17-15-14-16\-0-|
G|-----------------------------------------------------------------------------0-|
D|-------------------------------------------------------------------------------|
A|-------------------------------------------------------------------------------|
E|-------------------------------------------------------------------------------|

G|-------------------------------------------------------------------------------|
D|-------------------------------------------------------------------------------|
A|-------------------------------------------------------------------------------|
E|-10-----------------------------------------7----------------------------------|

e|-/11-13-14-14-(14)-13-11----11-14-11-13-14p13-11------------------------------------------------|
B|-------------------------14----------------------14-12s10-12-11-12-11-9-------------------------|
G|------------------------------------------------------------------------11-10-10-11-10-8----8---|
D|-----------------------------------------------------------------------------------------11-----|
A|------------------------------------------------------------------------------------------------|
E|------------------------------------------------------------------------------------------------|

G|------------------------------------------------------------------------------------------------|
D|------------------------------------------------------------------------------------------------|
A|------------------------------------------------------------------------------------------------|
E|--11---------------------------------------------------------------------9----------------------|

e|----------------------------------------------------------------------------|
B|----------------------------------------------------------------------------|
G|-11-8-10-11-10-8------------------------------------------------------------|
D|-----------------11-9-9-11-9-11-11-9-8--------------------------------------|
A|---------------------------------------11-9-8-------------------------------|
E|----------------------------------------------11b14-11-(11)-9-11-13-9-11-13-|

G|----------------------------------------------------------------------------|
D|----------------------------------------------------------------------------|
A|----------------------------------------------------------------------------|
E|--7------------------------------------------------------9------------------|

e|----------------------------------------------------------------------11-13-11----11-14--|
B|----------------------------------------------------11-12-14-11-12-14----------14--------|
G|----------------------------------10-11-13-10-12-14--------------------------------------|
D|------------------9-11-13-9-11-13--------------------------------------------------------|
A|--9-11-13-9-11-13------------------------------------------------------------------------|
E|-----------------------------------------------------------------------------------------|

G|-----------------------------------------------------------------------------------------|
D|-----------------------------------------------------------------------------------------|
A|-----------------------------------------------------------------------------------------|
E|-11--------------------------------------------------------------9-----------------------|

e|-11-13-14-13-11----------------11-13-14----------11-14-11-13-14-13-11----11-14-11-13-11--|
B|----------------14-12-11-12-14----------11-12-14----------------------14-----------------|
G|-----------------------------------------------------------------------------------------|
D|-----------------------------------------------------------------------------------------|
A|-----------------------------------------------------------------------------------------|
E|-----------------------------------------------------------------------------------------|

G|-----------------------------------------------------------------------------------------|
D|-----------------------------------------------------------------------------------------|
A|-----------------------------------------------------------------------------------------|
E|--7----------------------------------------------------------------11--------------------|

e|-------------------------------------------------------|
B|-14b16r=(14)b16-(14)-(14)-14b16==(14)r(14)-12-14-12-11-|
G|-------------------------------------------------------|
D|-------------------------------------------------------|
A|-------------------------------------------------------|
E|-------------------------------------------------------|

G|-------------------------------------------------------|
D|-------------------------------------------------------|
A|-------------------------------------------------------|
E|-11--------------------------------9-------------------|

e|-----------------------------------------------|
B|-11-12h14--------------------------------------|
G|----------11-(11)-10-11-10---------------------|
D|---------------------------13-13-11------------|
A|------------------------------------13s11-9-11-|
E|-----------------------------------------------|

G|-----------------------------------------------|
D|-----------------------------------------------|
A|-----------------------------------------------|
E|--7-------------------------------------9------|

e|----------------------------|-----------------|
B|----------------------------|-----------------|
G|-------------------------1s=|=15s===22--------|
D|----------------------------|-----------------|
A|-13----------11-13-(13)\----|----------x\-----|
E|----11-11h14----------------|----------x\-----|

G|----------------------------|-----------------|
D|----------------------------|-----------------|
A|----------------------------|-----------------|
E|-11----------------------9--|--7----------11--|

e|------------------------------------------------------|-------------------2---------------|
B|------------------------------------------------------|------------------------2-5--------|
G|-----4b6r===(4)b6==(4)r(4)b6==(4)r====(4)b6r===(4)b6==|====(4)r======(4)-----------4pb5-4-|
D|------------------------------------------------------|-----------------------------------|
A|------------------------------------------------------|-----------------------------------|
E|------------------------------------------------------|-----------------------------------|

G|------------------------------------------------------|-----------------------------------|
D|------------------------------------------------------|-----------------------------------|
A|----------------------------------12-(12)---14--------|-----------------------------------|
E|-12h14---12-14----------------------------------------|-12h14--12-14--------12------------|

                                                           ~~~~~~
e|-----------------------------------------|-----------------------|
B|-----------------------------------------|-----------------------|
G|-----2b5==(2)r===(2)---------------------|---------------4-(4)---|
D|----------------------4------------------|-----------------------|
A|-------------------------2---2b3=====(2)-|-(2)r=(2)--(2)---------|
E|-----------------------------------------|-----------------------|

G|-----------------------------------------|-----------------------|
D|-----------------------------------------|-----------------------|
A|------------------------12-(12)---14-----|-15--------14----12----|
E|-12h14--------12-14----------------------|-----------------------|

e|---------------------------------------|---------------------------------|
B|---------------------------------------|----17b19=====(17)r--17----17----|
G|----16b18----14--(14)-(14)---------0-0-|------------------------------14-|
D|-----------------------------------0-0-|---------------------------------|
A|---------------------------------------|---------------------------------|
E|---------------------------------------|---------------------------------|

G|---------------------------------------|---------------------------------|
D|---------------------------------------|---------------------------------|
A|-----------------------12--(12)-14-----|---------------------------------|
E|-12h14----12-14------------------------|-12h14-----12--14-------12-------|

e|---------------------------------------------------|--------------------------------------------|
B|---------------------------------------------------|--------------------------------------------|
G|---------------------------------------------------|-------14-(14)b16==(14)r(14)-(14)--(14)-----|
D|----16-14------------------------------------------|-14-16----------------------------------7/--|
A|-------------15-14-15-14-12----14-----12--14-14-16-|--------------------------------------------|
E|----------------------------14----14---------------|--------------------------------------------|

G|---------------------------------------------------|--------------------------------------------|
D|---------------------------------------------------|--------------------------------------------|
A|-------------------------------12----(12)-14-------|-15---------------------------14----12------|
E|-12h14----12----14---------------------------------|--------------------------------------------|

e|-------------------------------------------------|
B|-------------------------------------------------|
G|-------------------------------------------------|
D|-------------------------------------13-13-------|
A|-------------13-13-13-13-------------------14-14-|
E|-11-11-11-11-------------14-14-14-14-------------|

G|-------------------------------------------------|
D|-------------------------------------------------|
A|-------------------------------------------------|
E|-11-----------------------------------9----------|

e|-------------------------13-13-14-14-11-11--------|
B|-------------14-14-11-11-------------------14-14--|
G|-11-11-11-10--------------------------------------|
D|--------------------------------------------------|
A|--------------------------------------------------|
E|--------------------------------------------------|

G|--------------------------------------------------|
D|--------------------------------------------------|
A|--------------------------------------------------|
E|--7-----------------------------------9-----------|

e|-11-11-------------------------------------------|
B|-------------11-11-------------------------------|
G|-------13-13-------11-11-10-10-------------------|
D|-------------------------------13-13-11-11-------|
A|-------------------------------------------13-13-|
E|-------------------------------------------------|

G|-------------------------------------------------|
D|-------------------------------------------------|
A|-------------------------------------------------|
E|-11-----------------------------------9----------|

e|--------------------------------------------------------|
B|--------------------------------------------------------|
G|--------------------------------------------------------|
D|-11-11-11-11-11-11-13-13--------------------------------|
A|-------------------------14-14-13b14==(13)r(13)-(13)\---|
E|--------------------------------------------------------|

G|--------------------------------------------------------|
D|--------------------------------------------------------|
A|--------------------------------------------------------|
E|--7------------------------------------------9----------|

e|--------------------------------------------------------------------------------------------|
B|-10-----------------------10-12-10------10-14-10-12-14-12-10----------14p12p10---------14---|
G|----11h13-9h11h13-9h11h13----------13-9----------------------13-11--9----------13p11p9------|
D|--------------------------------------------------------------------------------------------|
A|--------------------------------------------------------------------------------------------|
E|--------------------------------------------------------------------------------------------|

G|--------------------------------------------------------------------------------------------|
D|--------------------------------------------------------------------------------------------|
A|-------------------------------------------------------------------12-----------------------|
E|-14-----------------------------------------------------------------------------------------|

e|--------------------------------------9-10-9----9-12-9-10-12-10-9-------------------|
B|-12-10----------------9h10h12-9h10h12--------12-------------------12-11-(11)s15-17--|
G|-------13-10-12-10-11---------------------------------------------------------------|
D|------------------------------------------------------------------------------------|
A|------------------------------------------------------------------------------------|
E|------------------------------------------------------------------------------------|

G|------------------------------------------------------------------------------------|
D|------------------------------------------------------------------------------------|
A|-------------------------------------------------------------12---------------------|
E|-12---------------------------------------------------------------------------------|

e|-14-16p14----14-17-14-16-17-16-14----------------14-16-17----------14-17-14-16-17-16-14--------------|
B|----------17----------------------17-15-14-15-17----------14-15-17----------------------18-18-16-16--|
G|-----------------------------------------------------------------------------------------------------|
D|-----------------------------------------------------------------------------------------------------|
A|-----------------------------------------------------------------------------------------------------|
E|-----------------------------------------------------------------------------------------------------|

G|-----------------------------------------------------------------------------------------------------|
D|-----------------------------------------------------------------------------------------------------|
A|-----------------------------------------------------------------------------------------------------|
E|-10--------------------------------------------------------------------------------------------------|

e|-------19----16-17-19----------16-19-19-19-17-19-17S16-16-17-16h17-17-16-14----------14-----|
B|-17-19----19----------16-17-19----------------------------------------------17-14-14----17--|
G|--------------------------------------------------------------------------------------------|
D|--------------------------------------------------------------------------------------------|
A|--------------------------------------------------------------------------------------------|
E|--------------------------------------------------------------------------------------------|

G|--------------------------------------------------------------------------------------------|
D|--------------------------------------------------------------------------------------------|
A|--------------------------------------------------------------------------------------------|
E|-12-----------------------------------------------------------------------------------------|

(Gtr 1)
e|---------------------------------------------------------------------------|
B|o-19---------------------------------------------------(19)\---------------|
G|---------------------------------------------------------------------------|
D|---------------------------------------------------------------------------|
A|o--------------------------------------------------------------------------|
E|---------------------------------------------------------------------------|

[Bridge]
(Hybrid Picking)
(Gtr 2)
e|--14----------------------------------14----------------17------------------|
B|o----------14----------------14----------------14------------------17-------|
G|--------------------14------------------------------------------------------|
D|-----16-16----16-16----16-16----16-16----16-16----16/19------19-19----19\16-|
A|o---------------------------------------------------------------------------|
E|----------------------------------------------------------------------------|

(Gtr 3)
G|----------------------------------------------------------------------------|
D|o---------------------------------------------------------------------------|
A|o-------------------------------------------------------12------------------|
E|--14------------------------------------------------------------------------|

e|-------------------------------------------------------------------|
B|-------------------------------------------------------------------|
G|-------------------------------------------------------------------|
D|-------------------------------------------------------------------|
A|-------------------------------------------------------------------|
E|-------------------------------------------------------------------|

e|-14----------------------------------12---------------10-----------------|
B|----------14----------------14---------------12----------------10--------|
G|-------------------14----------------------------------------------------|
D|----16-16----16-16----16-16----16\14---14-14----14\12----12-12----12-x---|
A|-------------------------------------------------------------------------|
E|-------------------------------------------------------------------------|

G|-------------------------------------------------------------------------|
D|-------------------------------------------------------------------------|
A|-------------------------------------------------------------------------|
E|-14---------------------------------------------------12-----------------|

e|-14----------------------------------14----------------17---------------|
B|----------14----------------14----------------14----------------17------|
G|-------------------14---------------------------------------------------|
D|----16-16----16-16----16-16----16-16----16-16----16/19---19-19----19\14-|
A|------------------------------------------------------------------------|
E|------------------------------------------------------------------------|

(Gtr 3)
G|------------------------------------------------------------------------|
D|------------------------------------------------------------------------|
A|-------------------------------------------------------12---------------|
E|-14---------------------------------------------------------------------|

e|-12----------------------------------10----------------------------------|
B|----------12----------------12----------------10----------------10------o|
G|-------------------13----------------------------------11----------------|
D|----14-14----14-14----14-14----14\12----12-12----12-12----12-12----12-x--|
A|------------------------------------------------------------------------o|
E|-------------------------------------------------------------------------|

G|-------------------------------------------------------------------------|
D|------------------------------------------------------------------------o|
A|------------------------------------------------------------------------o|
E|-12---------------(12)---------------10---------------(10)---------------|

[Outro] 
(Killswitch)
e|---------------------------------|--------------------------------------|
B|o--------------------------------|--------------------------------------|
G|---------------------------------|--------------------------------------|
D|--4-4----------------------------|-4-4-4--------------------------------|
A|o--------------------------------|-------------------------------2--2-2-|
E|------2-2--3--(3)-3--3--0-0--0-0-|-------2-2-2--3-3---3--3--3-3--0--0-0-|

G|---------------------------------|--------------------------------------|
D|o--------------------------------|--------------------------------------|
A|o-9---9---10-(10)---10-----------|-9-------9---10---(10)---10-----------|
E|-----------------------12---12---|------------------------------12-12---|

                                                                         (4x)
e|--------------------------------|--------------------------------------|
B|--------------------------------|-------------------------------------o|
G|--------------------------------|--------------------------------------|
D|-4-4----------------------------|-4-4-4--------------------------------|
A|-----------------------2-2--2-2-|-------------------------------2--2--o|
E|-----2-2--3--(3)-3--3--0-0--0-0-|-------2-2-2--3-3---3--3--3-3--0--0---|

                                                                       (4x)
G|--------------------------------|--------------------------------------|
D|--------------------------------|-------------------------------------o|
A|-9---9---10-(10)---10-----------|-9-------9---10---(10)---10----------o|
E|----------------------12---12---|------------------------------12-12---|


************************************

| (n)  Ghost note
| b    Bend
| h    Hammer-on
| p    Pull-off
| /    Slide up
| \    Slide down
| tr   Trill
| x    Dead note
| tp   Tremolo picking
| pb   Pre-bend
| ~    Vibrato


************************************
Suggest correction
comments
print report bad tab
139 comments total. Showing first comments.
+6 reply
srv_king 50 Feb 03, 2007 03:42 PM

nice. great tab for such a hard song

+4 reply
fuzzyfeet 30 Feb 08, 2007 03:19 PM

...you...are...GOD!!


i didnt play through the whole solo cause im not god...yet, but 5 stars for writing out this tab!!!!!!

+2 reply
bass guy 129 113 Feb 18, 2007 02:29 PM

i dont know what tr means... and wheres the notes your supposed to tap? theres no legend in this song, so i rated it a 4... but it still pwns face compared to all others ive looked at. good job, have a cookie.

guest
You may want to rate the tab now too:
select rating
Wanna post a correction for this tab? Suggest correction