Oops, an error
Loading. Please wait.

Jowls Tab

version 2
version 2

Whole song

Interactive

702 views 12 this week
no commentswrite comment
1 2 3 4 5
1 last vote to show rating
add to favorites
launch autoscroll
font size
0
reset
how to read this tab
guitar tuner
Autoscroll
slow
fast
+/-
esc
set tempo
stop
Help us to improve Ultimate-Guitar.com Take our survey!
×
Author
Artist: Buckethead
Album: Giant Robot (1994)
Song: Jowls
Tabbed by: Federico Loreggian

I'm pretty sure that Buckethead plays it this way. If you have the missing parts 
please write them in the comments and I will add them.

0.00 - 0.09

E|----------------------------------9h12h15----------|
B|------------------------------------------9h12h15--|
G|------------------9h12h15--------------------------|
D|--------------------------9h12h15------------------|   X3
A|---------------------------------------------------|
E|--9h12h15-9h12h15----------------------------------|

0.09 - 0.27

E|--------------------------|
B|--------------------------|
G|--------------------------|  
D|--------------------------|   X8
A|-------2------------3--3--|
E|--1--1-----1--1-1-1-------|

0.28 - 0.34

E|--14-14p13p12p11-----------------|
B|-----------------14-13-12-11-12--|
G|---------------------------------|
D|---------------------------------|   X4
A|---------------------------------|
E|---------------------------------|

0.34 - 0.43

E|--------------------------|
B|--------------------------|
G|--------------------------|  
D|--------------------------|   X4
A|-------2------------3--3--|
E|--1--1-----1--1-1-1-------|

0.44 - 0.53

Damn, too fast!! 

1.00 - 1.07

E|--12-10-9-10-12-10-9-7-10-8-7-5-3--|   
B|-----------------------------------|  X4
G|-----------------------------------|  
D|-----------------------------------|  I'm not sure that this is correct.
A|-----------------------------------|  Anyway, he plays this part raising
E|-----------------------------------|  the volume slowly.

1.08 - 1.25

E|--------------------------|
B|--------------------------|
G|--------------------------|  
D|--------------------------|   X8
A|-------2------------3--3--|
E|--1--1-----1--1-1-1-------|

1.26 - 1.37

E|----------------------------------9h12h15----------|
B|------------------------------------------9h12h15--|
G|------------------9h12h15--------------------------|
D|--------------------------9h12h15------------------|   X8
A|---------------------------------------------------|
E|--9h12h15-9h12h15----------------------------------|

1.38 - 1.47

E|--------------------------|
B|--------------------------|
G|--------------------------|
D|--------------------------|   X4
A|-------5------------6--6--|
E|--4--4-----4--4-4-4-------|

1.51 - 2.09 

E|--\\\\\\\\\\\\\\\\\\\-----|   
B|---\\\\\\\\\\\\\\\\\\\----|   He slide his hand on the strings from the 
G|----\\\\\\\\\\\\\\\\\\\---|   neck to the body using the killswitch and 
D|-----\\\\\\\\\\\\\\\\\\\--|   whammy pedal, listen carefully to the song 
A|--------------------------|   for the timing.
E|--------------------------|

2.10 - 2.51

Sorry, my ear can't recognize this.

2.52 - 3.22

E|--------------------------|
B|--13h14h15h16-16p15p14p13-|   X4
G|--------------------------| 
D|--------------------------|   Play it very fast!
A|--------------------------|
E|--------------------------|

3.23 - 3.31

E|--------------------------|
B|--------------------------|
G|--------------------------|  
D|--------------------------|   X4
A|-------2------------3--3--|
E|--1--1-----1--1-1-1-------|

3.32 - 3.42

E|-----------20-----------------------------------------|
B|------------------------19----------------------------|   X2
G|--18-18-18---------------------------17---------------|
D|---------------17-17-17-------------------------------|   The second time
A|----------------------------16-16-16--------------16--|   switch to clean
E|-----------------------------------------15-15-15-----|   channel.

E|--------------------------------------15---------------|
B|---------------------------------------------------17--|  Now switch again 
G|------------------------16---13-13-13------------------|  to overdrive
D|-----------14-----------------------------15-15-15-----|  channel.
A|---------------15-15-15--------------------------------|
E|--13-13-13---------------------------------------------|

E|-----------20-----------------------------------------|
B|------------------------19----------------------------|  
G|--18-18-18---------------------------17---------------|
D|---------------17-17-17-------------------------------|   
A|----------------------------16-16-16--------------16--|   
E|-----------------------------------------15-15-15-----|

E|--------------------------------------15---------------|
B|---------------------------------------------------17--|
G|------------------------16---13-13-13------------------|
D|-----------14-----------------------------15-15-15-----|
A|---------------15-15-15--------------------------------|
E|--13-13-13---------------------------------------------|

3.43 - 3.51

E|--------------------------|
B|--------------------------|
G|--------------------------|  
D|--------------------------|   X4
A|-------2------------3--3--|
E|--1--1-----1--1-1-1-------|

3.52 - 4.01

E|--------------------------|
B|--------------------------|
G|--------------------------|
D|--------------------------|   X4
A|-------5------------6--6--|
E|--4--4-----4--4-4-4-------|

4.01 - 4.25

Amplifier noise 
_____________________________________________________________________

That's it, Enjoy :D
Suggest correction
Give kudos to tab author, rate the tab!
1 2 3 4 5
comments
print report bad tab
guest
You may want to rate the tab now too:
select rating
Wanna post a correction for this tab? Suggest correction