Oops, an error
Loading. Please wait.

Jump Man tab

version 2
version 2

Whole song

Interactive

1,969 views 3 this week
no commentswrite comment
1 2 3 4 5
1 last vote to show rating
add to favorites
×
Save as Personal and add changes to this tab that will be seen only by you. Learn more ›
×
You can save this tab as Personal to edit and correct it or add notes. All changes will be seen only by you. Learn more »
launch autoscroll
font size
0
reset
how to read this tab
guitar tuner
edit
Autoscroll
slow
fast
+/-
esc
set tempo
stop
Intro lyrics:

I can never stop working hard
Each day I feel I have to improve
Hard work, determination
I gotta keep pushing myself

Part 1: 0:18-0:22 x3

E|-----------------------------------|
B|-----------------------------------|
G|-----------------------------------|
D|-----------------------------------|
A|-----------------------------------|
E|-12p0-0-12p0-12p0-12p0-0-7p0-7p0-8-|

Drum fill: 0:23-0:24

Repeat Part 1: 0:25-0:32 x4

Guitar fill: 0:32-0:39

Repeat Part 1: 0:39-0:53 x8

Solo 1A: 0:53-1:00 (shredding)

E|-24-24-24-24-24-22-24-22-24-22-19----------------19----------------19-20-19-17-19-22b24-|
B|----------------------------------22-20-19-20-22----22-20-19-20-22----------------------|
G|----------------------------------------------------------------------------------------|
D|----------------------------------------------------------------------------------------|
A|----------------------------------------------------------------------------------------|
E|----------------------------------------------------------------------------------------|

E|----------18-------------------------------------------------------------------|
B|-18-19-21----21-19-18-20-18-20-18-17----------------16----------------17-------|
G|-------------------------------------19-17-16-17-19----19-17-16-17-19----20-20-|
D|-------------------------------------------------------------------------------|
A|-------------------------------------------------------------------------------|
E|-------------------------------------------------------------------------------|

E|----------------------------------------------------------------------------------|
B|-16-19-16-18-19-18-16-------------------------------------------------------------|
G|----------------------18-16-15-18-16-18-16-15----------------14----17-14-17-17b19-|
D|----------------------------------------------17-15-14-15-17----17----------------|
A|----------------------------------------------------------------------------------|
E|----------------------------------------------------------------------------------|

Solo 1B: 1:01-1:05 (nubbing)

E|--------------------------------------------------------------------------------|
B|-------------------18p11-17p10-15p8---------------------------------------------|
G|-19p12-18p11-17p10------------------18p11-17p10---------------------------------|
D|------------------------------------------------17p10-16p9----------------------|
A|-----------------------------------------------------------17p10-16p9-14p9-13p7-|
E|--------------------------------------------------------------------------------|

E|----------------------------------------------------------------------------------|
B|----------------------------------------------------------------20p15-18p14-22p18-|
G|----------------------------------------------20p15-18p14-21p17-------------------|
D|----------------------16p13-19p14-18p14-16p13-------------------------------------|
A|-16p13-17p14-15p12p11-------------------------------------------------------------|
E|----------------------------------------------------------------------------------|

"I can never stop working hard."

Repeat Part 1: 1:07-1:36 x16

Solo 2: 1:36-1:46

E|----17-20-17-19-20-19-17-------------------------------------------------------|
B|-20----------------------19-17-16-19-17-16-------------------15----------------|
G|-------------------------------------------18-16-15-18-16-15----18-16-15-16-18-|
D|-------------------------------------------------------------------------------|
A|-------------------------------------------------------------------------------|
E|-------------------------------------------------------------------------------|

E|-------------------------------------------------------------------------------|
B|-15-16-15-14-15-18-15-17-18-17-15----------------------------------------------|
G|----------------------------------17-15-14-17-15-14----------------14----------|
D|----------------------------------------------------17-15-14-15-17----17-15-14-|
A|-------------------------------------------------------------------------------|
E|-------------------------------------------------------------------------------|

E|----------------------------------------------------------|
B|-------------------------------------------------------19-|
G|-17-15-14-------------------15-16-18-17-19-20-19-17-16----|
D|----------17-15-14-15-17-18-------------------------------|
A|----------------------------------------------------------|
E|----------------------------------------------------------|

E|---------------------19----------------------19-|
B|-18--17--16-------------------------------------|
G|-------------17--16------16--16--16--16--16-----|
D|------------------------------------------------|
A|------------------------------------------------|
E|------------------------------------------------|

Bass Part: 1:46-2:18

Solo 3: 2:18-3:17

E|----------------------------------------------------------------------------|
B|-12b14--r12--12--12h13p12p10-10\7-------------------------------------------|
G|--------------------------------------9-9h11--9h11p9h11p9h11p9h11p9h11p9h11-|
D|-----------------------------------11---------------------------------------|
A|----------------------------------------------------------------------------|
E|----------------------------------------------------------------------------|

E|----------------14---------------------------14----12--------------------------------|
B|-------------14----14-17-17b19-17b19---12-14----14----12b14-12----12-12b14r12--------|
G|-9h11--16b18---------------------------------------------------14-------------14--11-|
D|-------------------------------------------------------------------------------------|
A|-------------------------------------------------------------------------------------|
E|-------------------------------------------------------------------------------------|

E|---------------------------------------------------------------------------------|
B|------------------10h12-13p12p10-12-12b14-10--10\--------------------------------|
G|-9h11-11-9---9h11----------------------------------------------------------------|
D|---------------------------------------------------7h9-9/11-11-11-11--9h11p9\7-7-|
A|---------------------------------------------------------------------------------|
E|---------------------------------------------------------------------------------|

E|------------------------------------------------------------------------------|
B|------------------------------------------------------------------------------|
G|------9--9h11---------14----14----14----13--13b14r13-13--11h13p11-13b14r13----|
D|-9h11---------11---11----11----11----11-9----------------------------------11-|
A|------------------------------------------------------------------------------|
E|------------------------------------------------------------------------------|

E|----17-16b17r16---------------------------------------|
B|------------------------------------------------------|
G|-14--------------16-14-14b16---17p16p14-14----14--14\-|
D|-------------------------------------------16---------|
A|------------------------------------------------------|
E|------------------------------------------------------|

E|-----------------14------------14-12-------------------------------------------|
B|--------------------14-17b19---------14-12b14-12----12-12b14r12----12b14r12----|
G|-----------16b18---------------------------------14-------------14----------14-|
D|-------------------------------------------------------------------------------|
A|-------12----------------------------------------------------------------------|
E|-12h14-------------------------------------------------------------------------|

E|------------------14------------------------------------------------------------------|
B|---------------14----14-17-17---------------------------------------------------------|
G|-11\14---16b18------------------16b18r16-14-16-16b18-14b16r14b16-14-14b16r14b16r14b16-|
D|--------------------------------------------------------------------------------------|
A|--------------------------------------------------------------------------------------|
E|--------------------------------------------------------------------------------------|

E|----------16-16b17r16-17-16----------|
B|-------15-------------------17-17b19-|
G|-14-14-------------------------------|
D|-------------------------------------|
A|-------------------------------------|
E|-------------------------------------|

Solo 4: 3:18-3:34 (shredding)

E|------------------14----------------14h17p14h16h17p16p14----------------14h16p14----|
B|-17--15--14h15h17----17p15p14h15h17----------------------17p15p14h15h17----------17-|
G|------------------------------------------------------------------------------------|
D|------------------------------------------------------------------------------------|
A|------------------------------------------------------------------------------------|
E|------------------------------------------------------------------------------------|

E|-14h17p14h16h17p16p14----------------14----------------14h16p14----14h17p14h16h17p16p14-|
B|----------------------17p15p14h15h17----17p15p14h15h17----------17----------------------|
G|----------------------------------------------------------------------------------------|
D|----------------------------------------------------------------------------------------|
A|----------------------------------------------------------------------------------------|
E|----------------------------------------------------------------------------------------|

E|-------16h17h20----------21-17----21-17-21p19p17----------19h21p19----19-22b24r22-22b24-|
B|-17-15----------17h19h21-------19----------------19h21h22----------22-------------------|
G|----------------------------------------------------------------------------------------|
D|----------------------------------------------------------------------------------------|
A|----------------------------------------------------------------------------------------|
E|----------------------------------------------------------------------------------------|

E|-22-21-19-22p21-22p21p19----------------19-22-19-21-22-19-22p21p19----------|
B|-------------------------22p21p19h21h22----------------------------22p21p19-|
G|----------------------------------------------------------------------------|
D|----------------------------------------------------------------------------|
A|----------------------------------------------------------------------------|
E|----------------------------------------------------------------------------|
					
E|-22p21h22p21h22p21p19---------------------------------------------------------------|
B|----------------------22p21h22p21p19------------------------------------19----------|
G|-------------------------------------22p19----19p18h19p18----18---16-18----19-19-19-|
D|-------------------------------------------21-------------21------------------------|
A|------------------------------------------------------------------------------------|
E|------------------------------------------------------------------------------------|

"I've got to keep pushing myself."

Part 2: 3:37-3:47 x3

E|--------------------|-------------------|
B|--------------------|-------------------|
G|--------------------|-------------------|
D|--------------------|-------------------|
A|-4-4--4--4-4-4-4-5--|-4-4--4--4-4-4-4-4-|
E|-2-2--2--2-2-2-2-3--|-2-2--2--2-2-2-2---|

Part 3: 3:47-3:49 x1

E|--------------------|
B|--------------------|
G|--------------------|
D|--------------------|
A|-4-4--4--4-4-4-4-5--|
E|-2-2--2--2-2-2-2-3--|

Guitar fill: 3:49-3:51

Repeat Part 1: 3:51-3:56 x3

Drum fill: 3:56-3:58

Repeat Part 1: 3:59-4:20 x12

Ending: 4:21

						
Thanks to songsterr.com for most of the shredding parts.
Suggest correction
Creating personal tab
Creating personal tab
You can edit any tab online and save it as your Personal.

You can edit, replace or remove any tab part or add personal notes – all changes will be seen only by you.

Personal tabs can be accessed anytime from any device, even offline.
Learn more »
Give kudos to tab author, rate the tab!
1 2 3 4 5
comments
print report bad tab
guest
Wanna post a correction for this tab? Suggest correction