Oops, an error
Loading. Please wait.

Light Through The Fog Tab

52 views 6 this week
3 commentsread comments
1 2 3 4 5
2 more votes to show rating
add to favorites
launch autoscroll
font size
0
reset
how to read this tab
guitar tuner
Autoscroll
slow
fast
+/-
esc
set tempo
stop
Help us to improve Ultimate-Guitar.com Take our survey!
×
Author
Difficulty
Tuning
intermediate
D# G# C# F# A# D#
[Intro]
eb|------------------------------------|----------------------------------------|
Bb|--12--12--10--10--------------------|--12--12--10--10------------------------| acoustic
Gb|-------------------11--11---12--12--|-----------------11---11----------------| effect
Db|------------------------------------|-----------------------------12--12---9-| for
Ab|------------------------------------|----------------------------------------| intro
Eb|------------------------------------|----------------------------------------|

(00:14)
eb|------------------------------------|-------------------------------------------------------|
Bb|------------------------------------|-------------------------------------------------------| acoustic
Gb|------------------------------------|--------------------12-11-11--12/14-14/16--16-16~--16--| for
Db|------------------------------------|---------------12--------------------------------------| this 
Ab|--12h14---15p14-12--12h14p12-10-----|--10/12h14--15-----------------------------------------| section
Eb|------------------------------------|-------------------------------------------------------|

eb|------------------------------------|-----------15p14h15---------------------------|
Bb|--15-------15h17-15--12------g10h12-|--15----------------17------17h19h20--20--15--|
Gb|------------------------------------|----------------------------------------------|
Db|------------------------------------|----------------------------------------------|
Ab|------------------------------------|----------------------------------------------|
Eb|------------------------------------|----------------------------------------------|

eb|--------------------------------------------|-----------------------------------------------|
Bb|--15h17-------------------------------------|-----------------------------------------------|
Gb|------------14h16p14\12--11---11/12--14h16~-|-----16-16-14-14\12-12-12-12\11-11-11-11~~--\--|
Db|--------------------------------------------|-----------------------------------------------|
Ab|--------------------------------------------|-----------------------------------------------|
Eb|--------------------------------------------|-----------------------------------------------|

eb|----------------------------------------|-------------------------------|
Bb|-----5---7---8--/10---12---10---8---7---|-5---7---8--/10/12--12----12---|
Gb|--4--4--------------------------------4-|-------------------------------|
Db|----------------------------------------|-------------------------------|
Ab|----------------------------------------|-------------------------------|
Eb|----------------------------------------|-------------------------------|

(01:08)
eb|-----------------------------------|--------------------------------------------|
Bb|--20----------19h20-15-15--\12-12--|--20-20-19-19-15-15-15h17---17-17-----20-19-|
Gb|-----------------------------------|--------------------------------------------|
Db|-----------------------------------|--------------------------------------------|
Ab|-----------------------------------|--------------------------------------------|
Eb|-----------------------------------|--------------------------------------------|

eb|---------------17-17---------------------17-17-------|----------------------------------------|
Bb|--19-17--17----------20-19--19\17--17----------20\19-|-19\17--17-17---17-17-17-19-20---20---\-|
Gb|-----------------------------------------------------|----------------------------------------|
Db|-----------------------------------------------------|----------------------------------------|
Ab|-----------------------------------------------------|----------------------------------------|
Eb|-----------------------------------------------------|----------------------------------------|

eb|-----------------------------------|--------------------------------|
Bb|-----------------------------------|--------------------------------|
Gb|--12---(11)-9/11-h12---------------|----------4h5h7---7~-----g7\----|
Db|---------------------12---10\9-----|--5-----------------------------|
Ab|-----------------------------------|--------------------------------|
Eb|-----------------------------------|--------------------------------|

(01:50)
eb|-------------------------------------------------|-----14~----14---------------------|
Bb|-------------------------------------------------|--12-----------15-15-15h17---17~---|
Gb|--------------7---7h9-/11--12-g12/14--16--16~--\-|-----------------------------------|
Db|--5h9--7-9-9----9--------------------------------|-----------------------------------|
Ab|-------------------------------------------------|-----------------------------------|
Eb|-------------------------------------------------|-----------------------------------|

eb|--17--15p14--14p12--12p10--10\7--7p5h7p5h7p5/7---|----------------------------------------|
Bb|-------------------------------------------------|----7------8--g8/10---8h10-12---12-12---|
Gb|-------------------------------------------------|--4-----7-------------------------------|
Db|-------------------------------------------------|----------------------------------------|
Ab|-------------------------------------------------|----------------------------------------|
Eb|-------------------------------------------------|----------------------------------------|

eb|----------------------------------------------------------------|-----------------------------------|
Bb|---------------------------------------------------------12-----|-------------------------------15--|
Gb|--9/12-12-12-11--9--11--12-----------------------------------12-|--12----11------(12)-------12------|
Db|----------------------------12-\9--10-12--10-9-----10h12--------|---------------------(12)----------|
Ab|----------------------------------------------------------------|-----------------------------------|
Eb|----------------------------------------------------------------|-----------------------------------|

(02:31)
eb|-------------------------------------|--------------------------|
Bb|---13p12----10h12--10\8--7-8---------|--------------------------|
Gb|-------------------------------7---9-|-7h9~~~-------------------|
Db|-------------------------------------|--------------------------|
Ab|-------------------------------------|--------------------------|
Eb|-------------------------------------|--------------------------|

eb|-------------------------------------------------------------------------|
Bb|--------------------------------7-g7/8--7--------------------------------|
Gb|--------9\4-----------------7--------------7~~~------------------(-\-)---|
Db|------------------------------9------------------------------------------|
Ab|-------------------7h9h10p7----------------------------------------------|
Eb|-----------------7-------------------------------------------------------|

eb|--------15--14---12-15-14-15---------|--15-14-15-12-15-14-15-------------|
Bb|-----------------------------15~~\---|--------------------------15-15----|
Gb|-------------------------------------|-----------------------------------|
Db|-------------------------------------|-----------------------------------|
Ab|-------------------------------------|-----------------------------------|
Eb|-------------------------------------|-----------------------------------|

eb|-------------------------------------|-----------------------------------|
Bb|--12p10-12----8p7-8------------------|--12p10-12----8p7-8---\5p3-3h5~~---|
Gb|-----------------------9p7-9----\----|-----------------------------------|
Db|-------------------------------------|-----------------------------------|
Ab|-------------------------------------|-----------------------------------|
Eb|-------------------------------------|-----------------------------------|

(03:25)
eb|-------------------------------------|-------------------------------------|
Bb|-------------------------------------|-------------------------------------|
Gb|-----------------2--4-----5/7--5-4~~-|--------------2--4-----5/7--5p4-4~---|
Db|--2-2-2-2--4--5--------2-------------|--2--2--4--5--------2----------------|
Ab|-------------------------------------|-------------------------------------|
Eb|-------------------------------------|-------------------------------------|

eb|-------------------------------------|-------------------------------------|
Bb|-------------------------------------|-------------------------------------|
Gb|--------------2--4-----5/7--5-4~-----|--------------2--4-----5/7--5p4-4~---|
Db|--2--2--4--5--------2----------------|--2--2--4--5--------2----------------|
Ab|-------------------------------------|-------------------------------------|
Eb|-------------------------------------|-------------------------------------|

(03:53)
eb|---------------------------------------------------|-------------------------------------------------|
Bb|--12--12--10--10--/12---9--9------9h11-12-12/13-12-|-12h13----------12-------------------------------|
Gb|---------------------------------------------------|-------14-14-------12---12-12-12h14h16p14-12--11-|
Db|---------------------------------------------------|-------------------------------------------------|
Ab|---------------------------------------------------|-------------------------------------------------|
Eb|---------------------------------------------------|-------------------------------------------------|

eb|----------------------------------------------|----------------------------|
Bb|----------------------------------------------|----------------------------|
Gb|--11h12p11-11---9~~~-----------4p2--0h2h4-----|----------------------------|
Db|-------------------------------------------2--|--2-------------------------|
Ab|----------------------------------------------|-----------2----2qbr----/9\-|
Eb|----------------------------------------------|----------------------------|
               PM            PM
eb|-------------v-------------v----------|------------------------------------|
Bb|-------------v-------------v-----3-5--|--------------------------3-5-------|
Gb|----0-2-2/4--4-2-4---2-4---2-4--------|--2h4-4-2-4---2-4---2-4~------------|
Db|--2-----------------------------------|------------------------------------|
Ab|--------------------------------------|------------------------------------|
Eb|--------------------------------------|------------------------------------|

          PM   PM-------|
eb|--------v--------------------------------------------------|
Bb|--------v--------------------------------------------------|
Gb|--2h4-4-2-4---2-4-2-2--4p2-2p0-----------------------------|
Db|-------------------------------5p4-4h5-5--5~~--------2--4--|
Ab|--------------------------------------------------2--------|
Eb|-----------------------------------------------------------|

eb|---------------------------------|-------------------------|
Bb|-----------------3---3-3~~-------|----------------3~~------|
Gb|---------------------------------|-------------------------|
Db|--2------4---5-------------------|-2------4---5------------|
Ab|-------------------------------2-|-------------------------|
Eb|---------------------------------|-------------------------|
   
(04:47)
eb|------------------------------7-|-8----7---5--7------------|
Bb|--0--7--h8--/10------8----------|--------------------------|
Gb|--------------------------------|--------------------------|
Db|--------------------------------|--------------------------|
Ab|--------------------------------|--------------------------|
Eb|--------------------------------|--------------------------|
                                                 
eb|--10h12--12~~------10---------------------|------12------12-----------------|
Bb|---------------------g12\10--8-10/12------|--(12)----------g12\10--8-10/12--|
Gb|------------------------------------------|---------------------------------|
Db|------------------------------------------|---------------------------------|
Ab|------------------------------------------|---------------------------------|
Eb|------------------------------------------|---------------------------------|

eb|------------------------------|------------------------|
Bb|------------------------------|------------------------|
Gb|------------------------------|------------------------|
Db|--16h17---------14---------14-|-17-----\16------14-14--|
Ab|------------------------------|------------------------|
Eb|------------------------------|------------------------|

(05:29)
eb|-------------------------------|-------------------------|
Bb|--15----12------12----------15-|-15----12------12--------|
Gb|----------------------12-------|---------------------12--|
Db|-------------------------------|-------------------------|
Ab|-------------------------------|-------------------------|
Eb|-------------------------------|-------------------------|

eb|-------------------------------|----------------------------------------------|
Bb|-------------------------------|----------------------------------------------|
Gb|-------------------------------|------------------------------------11/12-14--|
Db|-------------------------------|----------------------------12----------------|
Ab|--7/9-9/10-10---12/14~------\--|--7/9-9/10-10---12/14~~--------14-------------|
Eb|-------------------------------|----------------------------------------------|

eb|----------------------------------------------------------------|
Bb|--g10/12-------------10/12-------------10/12-----12/15-15-\12---|
Gb|-----------11-/12-14---------11/12--14--------------------------|
Db|----------------------------------------------------------------|
Ab|----------------------------------------------------------------|
Eb|----------------------------------------------------------------|

(06:03)
eb|------------------------------------------------------------------------|
Bb|----------------------------------------15----15/17-17-17---17-17~~~\---|
Gb|--11h12-g14/16---16\--11/12-14/16---16-----16---------------------------|
Db|------------------------------------------------------------------------|
Ab|------------------------------------------------------------------------|
Eb|------------------------------------------------------------------------|

eb|--------15--14----15-----------------------13/15-|-14---15----------------------------------------|
Bb|------------------------15--12--15fbr~~----------|---------15----15--12--15h17---15---------------|
Gb|--12/16------------------------------------------|----------------------------------14fbr-12--12--|
Db|-------------------------------------------------|------------------------------------------------|
Ab|-------------------------------------------------|------------------------------------------------|
Eb|-------------------------------------------------|------------------------------------------------|

eb|------15p14-14h15-12--15p14-14h15-10--10p8-8p7-7h8-10------------|
Bb|--12--------------------------------------------------8---8~~----|
Gb|-----------------------------------------------------------------|
Db|-----------------------------------------------------------------|
Ab|-----------------------------------------------------------------|
Eb|-----------------------------------------------------------------|

eb|--15p14-14h15-12--15p14-14h15-10--8h10p8-7--7--7-8-10--7----------------------|
Bb|----------------------------------------------------------10-8-8--8-8\--------|
Gb|------------------------------------------------------------------------0--0--|
Db|------------------------------------------------------------------------------|
Ab|------------------------------------------------------------------------------|
Eb|------------------------------------------------------------------------------|

(06:38)
(Play this part softly)
eb|------------------------------------------------------------|
Bb|------------------------------------------------------------|
Gb|------4-5-7------4-5-7--7fbr-------4-5-7------4-5-7--7fbr---|
Db|--5-7--------5-7---------------5-7--------5-7---------------|
Ab|------------------------------------------------------------|
Eb|------------------------------------------------------------|
  
eb|-----------------------------------------------------|
Bb|--8-8-7-7--------------------------------------------|
Gb|----------9------7-7---------------------------------|
Db|-------------9-9-----7-7-7-5-4-4-4-5-4-5-4-5-5~~-----|
Ab|-------------------------^---------------------------|
Eb|-------------------------^---------------------------|
                           PM
eb|-----------------------------------------------------|
Bb|-----------------------------------------------------|
Gb|-----------------------------------14-14---16--------|
Db|--9~~------/12---------9-----/12---------------------|
Ab|-----------------------------------------------------|
Eb|-----------------------------------------------------|

eb|-------------------------------|------------------------------------------|
Bb|-------------------------------|------------------------------------------|
Gb|-------------------------------|------------------------------------------|
Db|-------------------------------|------------------------------------------|
Ab|--10\9---------------5/7~~-----|--10\9-----------5/7~~-5------------------|
Eb|---------10---7-h10------------|---------10---10----------5fbr-3---0---XX-|

eb|--------------------------------------|------------------------------------------|
Bb|--------------------------------------|------------------------------------------|
Gb|--------------------------------------|------------------------------------------|
Db|--------------------------------------|---------------------0--------------------|
Ab|--9/10-9----------9/10-9---10-(10)----|-10--9/10-9-7-5---2----2-5/7~~--5---------|
Eb|----------10---7----------------------|----------------------------------7\5-3---|
                 PM

(07:31)
eb|----------14--14---12-----14-------------15---14-14hb~~hb-hb-hbr-|
Bb|--7/12-12---------------12-----15-15--12-------------------------|
Gb|-----------------------------------------------------------------|
Db|-----------------------------------------------------------------|
Ab|-----------------------------------------------------------------|
Eb|-----------------------------------------------------------------|

eb|---14---12-12-|---15---------|---15---14-14-|-15-15-----15--17---|
Bb|-12-----------|-12-----15-15-|-15-----------|--------------------|
Gb|--------------|--------------|--------------|--------------------|
Db|--------------|--------------|--------------|--------------------|
Ab|--------------|--------------|--------------|--------------------|
Eb|--------------|--------------|--------------|--------------------|

eb|--17-17---15-15---14-14---12-12---\10-10----8-8----7-7----|
Bb|----------------------------------------------------------|
Gb|----------------------------------------------------------|
Db|----------------------------------------------------------|
Ab|----------------------------------------------------------|
Eb|----------------------------------------------------------|

eb|------15-15----14-14----12-12---\10-10------------------------------------|
Bb|--12-------------------------------------10-12-13-12hbr-12----------------|
Gb|--------------------------------------------------------------9--9\7-7/9--|
Db|--------------------------------------------------------------------------|
Ab|--------------------------------------------------------------------------|
Eb|--------------------------------------------------------------------------|

(08:00)
eb|------------------------------------|-----------------------------------------------|
Bb|------------------------------------|-----------------------------------------------|
Gb|--9---------------------------------|-----------------------------------------------|
Db|-------9h12-------------------------|-----------------------------------------------|
Ab|------------------------------10h12-|-12/14---14h15p14-12----12h14p12-10---10-------|
Eb|-----------------------10-h12-------|-----------------------------------------------|

          (play these notes softly)    (play   these   notes   softly)
eb|----------------------------------|--------------------------------------|
Bb|----------------------------------|--------------------------------------|
Gb|----------------------------------|--------------------------------------|
Db|--14---14-14-14-14-16-16-17-------|--14-14-14-14-14-14-16-16-17-17-------|
Ab|----------------------------------|--------------------------------------|
Eb|------------------------------15--|----------------------------------15--|

eb|--------------------------------------|
Bb|--------------------------------------|
Gb|--------------------------------------|
Db|--14-14-14-14-14-14-16-16-17-17-------|
Ab|--------------------------------------|
Eb|----------------------------------15--|
   
(08:27)
eb|-------------------------------------------|------------------------------|
Bb|-------------------------------------------|------------------------------|
Gb|-------------------------------------------|------------------------------|
Db|-----------------------------------------9-|-9p7--7p5--5p4--4h5-----------|
Ab|--10--9--7--5----5h7-7/9---10-10-10~-------|---------------------h5-5-5---|
Eb|-------------------------------------------|------------------------------|
                                                                             (hold bend)
eb|-------------------------------------------|-----------------------------------------|
Bb|-------------------12h13-15fbr-------------|---------------12h15-15fbr--15fb-15~~~~--|
Gb|-----12------12h14-------------------------|-12------12h14---------------------------|
Db|--9-------------------------------------12-|-----------------------------------------|
Ab|-------------------------------------------|-----------------------------------------|
Eb|-------------------------------------------|-----------------------------------------|

                                (hold the bend)
eb|--15p14-14-12-12--\7-----------------------------------|-------------------------|
Bb|---------------------10-8-10fb----10~~~--10br-8h10p8\7-|-7h8-7\5-5---------------|
Gb|-------------------------------------------------------|-------------------------|
Db|-------------------------------------------------------|-------------------------|
Ab|-------------------------------------------------------|-------------------------|
Eb|-------------------------------------------------------|-------------------------|

eb|------------------------------|------------------------------|
Bb|--12-----10-------------------|------------------------------|
Gb|-------------------11h12---11-|-11-h7-7-------7h9~-----------|
Db|------------------------------|------------9-----------------|
Ab|------------------------------|------------------------------|
Eb|------------------------------|------------------------------|

 
 [Outro]

eb|------------------------------|
Bb|------------------------------| 
Gb|------------------------------| clean
Db|------------------------------| with
Ab|--7-------9--9--11-11---------| delay
Eb|----0-(0)---------------------|


************************************

| b    Bend
| /    Slide up
| ~    Vibrato
| h    Hammer-on
| p    Pull-off
| g    Grace note
| \    Slide down
| (n)  Ghost note
| PM   Palm mute
| br   Bend release

************************************
Suggest correction
Give kudos to tab author, rate the tab!
1 2 3 4 5
comments
print report bad tab
3 comments total.
0 reply
fedepichel 10 Nov 26, 2016 06:24 PM

Mil gracias por el aporte, hermosa canción!!! Yo estoy terminando con la canción NN del pike screen Door,
Abrazo desde Argentina

0 reply
DropDeee 1,641 Nov 27, 2016 02:04 AM

Bienvenido!! Está usted tabulación NN? Es una bonita canción. No estoy seguro de qué canción de Buckethead a la pestaña siguiente!

0 reply
fedepichel 10 Nov 27, 2016 12:14 PM

En la semana empiezo a trabajar con mount shasta

guest
You may want to rate the tab now too:
select rating
Wanna post a correction for this tab? Suggest correction