Oops, an error
Loading. Please wait.

Little Gracie intro tab

version 2
version 2

Intro

Whole song

Interactive

1,365 views 1 this week
1 commentread comment
1 2 3 4 5
x 3
add to favorites
×
Save as Personal and add changes to this tab that will be seen only by you. Learn more ›
×
You can save this tab as Personal to edit and correct it or add notes. All changes will be seen only by you. Learn more »
launch autoscroll
font size
0
reset
how to read this tab
guitar tuner
edit
Autoscroll
slow
fast
+/-
esc
set tempo
stop
Author
Difficulty
Tabbers playing skills
intermediate
advanced +
-----------------------------------------------------------------|
--------3----------------3---------------------------------------|
--------------0--------------------------------------------------|
-------------------0--------------2--0---------------------------|
-----------------------------------------------------------------|
--------3----------------3--------3------------------------------|

repeat this twice then...

--------------------0-----------------------------------------------|
--------1----------------1---------------0--------------------------|
------------0----------------0-----------0--------------------------|
---------------2-----------------2-------2--------------------------|
--------3--------------------------------3--------------------------|
--------------------------------------------------------------------|

do that twice then...

-----------------------------------------------------------5----------|
--------3------------------3---------------3--------------------------|
-----------0-------------------0---------------0----------------------|
----------------4-----------------4----------------4------------------|
--------5------------5----------------5----------------5--------------|
----------------------------------------------------------------------|

then my favorite part of the song...

---------------------------------5-------------------3----2-------------|
-----8-------------8------7-----------------------0---------------------|
---------9--------------------7----------------0------------------------|
-------------9------------------------------2---------------------------|
-----7--------------------5--------------3------------------------------|
------------------------------------------------------------------------|

thats all i've got so far, if anybody has any suggestions or comments about what i did, 
be happy to hear from u and let me know what u think.

--------------------------------------------10-------------------------------
------0--------1-----3-----5-----7-----8-------------------------------------
------0--------0-----0-----------------------------------------------------
---------------------------------------------------------------------------
---------------0-----2-----3-----5-----7--------------------------------------
------3--------------------------------------------------------------------

            
            
Suggest correction
Creating personal tab
Creating personal tab
You can edit any tab online and save it as your Personal.

You can edit, replace or remove any tab part or add personal notes – all changes will be seen only by you.

Personal tabs can be accessed anytime from any device, even offline.
Learn more »
Give kudos to tab author, rate the tab!
1 2 3 4 5
comments
print report bad tab
1 comment total.
+1 reply
TornadoRaptor 10 Jan 18, 2009 01:38 PM

Okay retards this isnt who me its little gracie quit confusing the two, this is the only guy thats even come close to getting it right ..someone help finish this

guest
You may want to rate the tab now too:
select rating
Wanna post a correction for this tab? Suggest correction