Oops, an error
Loading. Please wait.

New Untitled Song tab

version 2
version 2

Whole song

580 views 6 this week
5 commentsread comments
1 2 3 4 5
1 last vote to show rating
add to favorites
×
Save as Personal and add changes to this tab that will be seen only by you. Learn more ›
×
You can save this tab as Personal to edit and correct it or add notes. All changes will be seen only by you. Learn more »
launch autoscroll
font size
0
reset
how to read this tab
guitar tuner
edit
Autoscroll
slow
fast
+/-
esc
set tempo
stop
There are a few other versions of this song on here but none tabbed in half-step down, 
usual tuning for most of Buckethead's songs.


Great unreleased track by the Big B and one of my favourites.   Enjoy!!






                                BUCKETHEAD


                       -   "NEW UNTITLED SONG"   -



video:    https://www.youtube.com/watch?v=3S_rPUdIc7Q
tuning:   half-step down
effect:   slight delay and wah-pedal





                               
[Intro]
eb|-----------------------------------|---------------------------------------|
Bb|-----------------------10----------|---------------------------------------|
Gb|--9--10p9--12------7---------------|-------9---10p9---------------10-------|
Db|---------------7-----7-------------|----------------10---------------------|
Ab|-----------------------------------|-------------------10--\8--8-----------|
Eb|-----------------------------------|---------------------------------------|

eb|-----------------------------------|---------------------------------------|
Bb|--------------------------10-------|---------------------------------------|
Gb|--9----10p9--7-------7-------------|----9--9---10p9------------------------|
Db|----------------7------7-----------|----------------10-------------10------|
Ab|-----------------------------------|-------------------10-\8--8------------|
Eb|-----------------------------------|---------------------------------------|

(00:24)                      
[Verse 1]
eb|--12-13p12--13--12--13p12-12-------|-12--13p12--13/15--15-15p13\12--12--13-|
Bb|-----------------------------13----|---------------------------------------|
Gb|--------------------------------14-|---------------------------------------|
Db|-----------------------------------|---------------------------------------|
Ab|-----------------------------------|---------------------------------------|
Eb|-----------------------------------|---------------------------------------|

eb|--12-13p12--13--12--13--12---------|-12-13p12--13/15-15--13h15p13\12-12-13-|
Bb|-----------------------------------|---------------------------------------|
Gb|---------------------------14--14--|---------------------------------------|
Db|-----------------------------------|---------------------------------------|
Ab|-----------------------------------|---------------------------------------|
Eb|-----------------------------------|---------------------------------------|

(00:45)    
eb|-----------------------------------|---------------------------------------|
Bb|--------13----------11-------------|-------------13----------11------------|
Gb|-----12----------10------9/10------|----------12----------10-------9/10----|
Db|--15----------12-------------------|-------15----------12------------------|
Ab|-----------------------------------|---------------------------------------|
Eb|-----------------------------------|---------------------------------------|

eb|-----------------------------------|---------------------------------------|
Bb|---------8-----------8-------------|-----------8-----------8---------------|
Gb|--9--10--------7-----9---5---------|----9--10--------7-----9---5-----------|
Db|-----------------------------------|---------------------------------------|
Ab|-----------------------------------|---------------------------------------|
Eb|-----------------------------------|---------------------------------------|

eb|-----------------------------------|---------------------------------------|
Bb|--------13----------11-------------|-------------13----------11------------|
Gb|-----12----------10------9/10------|----------12----------10-------9/10----|
Db|--15----------12-------------------|-------15----------12------------------|
Ab|-----------------------------------|---------------------------------------|
Eb|-----------------------------------|---------------------------------------|

eb|-----------------------------------|---------------------------------------|
Bb|---------8-----------8-------------|-----------8-----------8---------------|
Gb|--9--10--------7-----9---5---------|----9--10--------7-----9---5-----------|
Db|-----------------------------------|---------------------------------------|
Ab|-----------------------------------|---------------------------------------|
Eb|-----------------------------------|---------------------------------------|



(01:06)
[Pre-chorus]                
eb|---------------------------------------------------------------------------|
Bb|---------------------------------------------------------------------------|
Gb|---------------------------------------------------------------------------|
Db|--12h14--14/15-~~--14~~--\10~~~~--10--12-12--\3~~~--/10-\8~~~-----8-8-8~---|
Ab|---------------------------------------------------------------------------|
Eb|---------------------------------------------------------------------------|

eb|---------------------------------------------------------------------------|
Bb|---------------------------------------------------------------------------|
Gb|---------------------------------------------------------------------------|
Db|--12h14--14/15-~~--14~~--\10~----10-10h12--10~~-----10-10-10---------------|
Ab|---------------------------------------------------------------------------|
Eb|---------------------------------------------------------------------------|

eb|---------------------------------------------------------------------------|
Bb|---------------------------------------------------------------------------|
Gb|---------------------------------------------------------------------------|
Db|--10-12-12---\3~~----/8~~~-----8-8---8~~~~---------------------------------|
Ab|---------------------------------------------------------------------------|
Eb|---------------------------------------------------------------------------|



(01:30)
[Chorus]
eb|---------------------------------------------------------------------------|
Bb|---------------------------------------------------------------------------|
Gb|----------------------10~~~---------10-10/12-14~~---14/15--\14-14~~~-------|
Db|-----------------10----------10h12-----------------------------------------|
Ab|----7/15\8-------8---------------------------------------------------------|
Eb|----7/15\8-----------------------------------------------------------------|

eb|---------------------------------------------------------------------------|
Bb|--------------------------------------------18-17---17h18------------------|
Gb|---------10h12--12--12/14~~--14/17-17/19-------------------17-17~~---------|
Db|--10h12--------------------------------------------------------------------|
Ab|---------------------------------------------------------------------------|
Eb|---------------------------------------------------------------------------|

eb|---------------------------------------------------------------------------|
Bb|--18-17---18--------------18--17----18-20-20hb-20-18--17--18~~-------------|
Gb|---------------------------------------------------------------------------|
Db|-------------17-17h19~~----------------------------------------------------|
Ab|---------------------------------------------------------------------------|
Eb|---------------------------------------------------------------------------|

(01:52)
eb|---------------------------------------------------------------------------|
Bb|---------------------------------------------------------------------------|
Gb|--10-10-10h12--10--10~~~----------10--10--12--14~---15---14h15-14~~~~------|
Db|--------------------------10--12-------------------------------------------|
Ab|---------------------------------------------------------------------------|
Eb|---------------------------------------------------------------------------|

eb|---------------------------------------------------------------------------|
Bb|----------------------------------------18p17-17-h18-----------------------|
Gb|--------10----10h12--12/14-14~~----------------------17--17-17h18~~~-------|
Db|--10h12----12--------------------------------------------------------------|
Ab|---------------------------------------------------------------------------|
Eb|---------------------------------------------------------------------------|

eb|---------------------------------------------------------------------------|
Bb|--18p17-17-h18------------20-18p17--17--17h18------------------------------|
Gb|---------------17-----------------------------17----17h19--19~-19~-19~-19\-|
Db|------------------17h19~~------------------------19------------------------|
Ab|---------------------------------------------------------------------------|
Eb|---------------------------------------------------------------------------|



(02:13)                         
[Fill]                          PM-------------|                          PM-------------|
eb|-----------------------------------------------------------------------------------------|
Bb|-----------------------------------------------------------------------------------------|
Gb|-11-11-11---9--9--9/11--11-11------------------11-11-11---9--9--9--7-7-------------------| 3 TIMES
Db|-12-12-12--10-10-10/12--12-12------------------12-12-12--10-10-10--8-8-------------------|
Ab|-12-12-12--10-10-10/12--12-12------------------12-12-12--10-10-10--8-8-------------------|
Eb|-10-10-10---8--8--8/10--10-10--10-12-10-13-12--10-10-10---8--8--8--6-6---10-12-10-13-12--|

                                PM-------------|
eb|-----------------------------------------------------------------------------------------|
Bb|-----------------------------------------------------------------------------------------|
Gb|-11-11-11---9--9--9/11--11-11------------------11-11-11---9--9--9--7-7-----7-7-7---7-----| 4th TIME
Db|-12-12-12--10-10-10/12--12-12------------------12-12-12--10-10-10--8-8-----8-8-8---8-----|
Ab|-12-12-12--10-10-10/12--12-12------------------12-12-12--10-10-10--8-8~----8-8-8---8~~---|
Eb|-10-10-10---8--8--8/10--10-10--10-12-10-13-12--10-10-10---8--8--8--6-6~----6-6-6---6-~~--|



(02:37)
[Guitar break]
eb|---------------------------------------------------------------------------|
Bb|---------------------------------------------------------------------------|
Gb|-----------------------------------10h12p10~~------------9--9--9-----------|
Db|-----------------------------10h12----------------------10-10-10-----------|
Ab|------------------8h10/12~~-----------------------------10-10-10-----------|
Eb|--6/13\8~~---8h10-----------------------------10-12-10---8--8--8---5--6-6--|
       
eb|---------------------------------------------------------------------------|
Bb|---------------------------------------------------------------------------|
Gb|----------------------------------9--9--9--9----7--------------------------|
Db|---------------------------------10-10-10-10----8--------------------------|
Ab|------8h10p8\7h8p7---------------10-10-10-10----8--------------------------|
Eb|--10---------------8/10--10~~10~~-8--8--8--8----6---5-6~~------------------|

eb|---------------------------------------------------------------------------|
Bb|---------------------------------------------------------------------------|
Gb|---------------------------------------------------------------------------|
Db|---------------------------------------------------------------------------|
Ab|---------8h10p8\7----------------------------------------------------------|
Eb|--8-8h10-----------10--10-8h10-8-8----5---6-6~~~------------7/15\8---------|



(02:56)
[SOLO]
eb|---------------------------------------------------------------------------|
Bb|---------------------------------------------------------------------------|
Gb|--(12fb---12--12br)-----12fbr-10~~-(12fb-12br)----12fbr--------10----------|
Db|--------------------------------------------------------10h12--------------|
Ab|---------------------------------------------------------------------------|
Eb|---------------------------------------------------------------------------|

eb|---------------------------------------------------------------------------|
Bb|----------------------------10---------------------------------------------|
Gb|--12fb----12fb-12fb-12fb-------10~~--9~~--10~~-----------------------------|
Db|-------------------------10------------------------------------------------|
Ab|---------------------------------------------------------------------------|
Eb|---------------------------------------------------------------------------|

eb|---------------------------------------------------------------------------|
Bb|--(13fb--13-13br)----13fbr-13~~-------18-17--------------------------------|
Gb|------------------10-----------14-----------17---------10h12--(12fb--12b---|
Db|-------------------------------------------------10h12---------------------|
Ab|---------------------------------------------------------------------------|
Eb|---------------------------------------------------------------------------|

eb|---------------------------------------------------------------------------|
Bb|---------------------------------------------------------------------------|
Gb|--12b-12b)----12fbr-12----10h12p10\9---10~~~-------------------------------|
Db|----------10---------------------------------------------------------------|
Ab|---------------------------------------------------------------------------|
Eb|---------------------------------------------------------------------------|

eb|---------------------------------------------------------------------------|
Bb|--------10h13--(13fb~~-13-~-13br)----13fbr-13~~---11-11-11-11-10-10-10-10--|
Gb|--10h12---------------------------10---------------------------------------|
Db|---------------------------------------------------------------------------|
Ab|---------------------------------------------------------------------------|
Eb|---------------------------------------------------------------------------|

eb|---------------------------------------------------------------------------|
Bb|---------------------------------------------------------------------------|
Gb|--------10h12--(12fb~--12b-12b-12b)----12fbr-10~~--10h12p10\9--10~~~-------|
Db|--10h12-----------------------------10-------------------------------------|
Ab|---------------------------------------------------------------------------|
Eb|---------------------------------------------------------------------------|

eb|---------------------------------------------------------------------------|
Bb|------------10h13-(13fb~--13--13br)----13fbr-13~--13p11-11-11-10-10-10-10--|
Gb|------10h12--------------------------10------------------------------------|
Db|--12-----------------------------------------------------------------------|
Ab|---------------------------------------------------------------------------|
Eb|---------------------------------------------------------------------------|

eb|---------------------------------------------------------------------------|
Bb|-10------------------------------------------------------------------------|
Gb|----------10--(12fb--12b-12b-12br)----12fbr-12~~--10h12p10\9--10~~---------|
Db|----10h12--------------------------10--------------------------------------|
Ab|---------------------------------------------------------------------------|
Eb|---------------------------------------------------------------------------|



(03:38)                          WAH-------------------------------------|
eb|---------------------------------------------------------------------------|
Bb|---------------------------------------------------------------------------|
Gb|--------10h12--12/14--14~~~------------------------------10h12/14-14~~~----|
Db|--10h12-----------------------12p10----10----------10h12-------------------|
Ab|------------------------------------12-------10h12-------------------------|
Eb|---------------------------------------------------------------------------|

eb|---------------------------------------------------------------------------|
Bb|---------------------------------------------------------------------------|
Gb|---------------------------10h12p10\9---10---------------------------------|
Db|--12p10----10~~------10h12-----------------10-----10h12---10---------------|
Ab|--------12-------12----------------------------12------------10--8---------|
Eb|---------------------------------------------------------------------------|

eb|----------------------------10-12hb-12-------------------------------------|
Bb|-------------------------10------------13----------------------------------|
Gb|-------------------10h12---------------------------------------------------|
Db|-------------10h12---------------------------------------------------------|
Ab|--8/10-10h12---------------------------------------------------------------|
Eb|---------------------------------------------------------------------------|

eb|---------------------------------------------------------------------------|
Bb|---------------------------------------------------------------------------|
Gb|--10h12-12/14~~------------------------10-12-12/14~------------------------|
Db|-----------------12-12----10~~---10-12---------------12-12----10-----------|
Ab|-----------------------12----------------------------------12--------------|
Eb|---------------------------------------------------------------------------|

   PM-------------|
eb|------------------------------------------------------10-12hbr--13p12------|
Bb|---------------------------------------------------10----------------------|
Gb|-----------10-12-10--9---h10-----------------10-12-------------------------|
Db|-----10-12-------------------10------10h12---------------------------------|
Ab|--12------------------------------12---------------------------------------|
Eb|---------------------------------------------------------------------------|

                            WAH-----------------------------------------|
eb|---------------------------------------------------------------------------|
Bb|--15p13--14hb-14-14~~~~-----15--13-13-11-11-10----15-15-13-13-11-11-10-----|
Gb|---------------------------------------------------------------------------|
Db|---------------------------------------------------------------------------|
Ab|---------------------------------------------------------------------------|
Eb|---------------------------------------------------------------------------|

  WAH------------------------------------------------------------------|
eb|---------------------------------------------------------------------------|
Bb|--10p8-8h10-10-11-10-----------------------13------------------------------|
Gb|-------------------------------10h12-12fb-----12fbr-10h12p10--9h10---------|
Db|---------------------12-10-12--------------------------------------10------|
Ab|---------------------------------------------------------------------------|
Eb|---------------------------------------------------------------------------|             

 WAH------------------------------------------------------------------------|  
eb|---------------------------------------------------------------------------|
Bb|-10-10--8-8--6-6--5-5--8-8--6-6--5-5--3-3--5-5--6-6--8-8--13-13--11-11--10-|
Gb|---------------------------------------------------------------------------|
Db|---------------------------------------------------------------------------|
Ab|---------------------------------------------------------------------------|
Eb|---------------------------------------------------------------------------|
                      
  WAH------------------------------------------------------------------|
eb|--12-13-12-----------------------------------------------------------------|
Bb|------------13fb-----------------------------------------------------------|
Gb|---------------------12fb-12-10-12-10---12-10-12fb-12-10-12-10-------------|
Db|----------------------------------------------------------------12-10------|
Ab|---------------------------------------------------------------------------|
Eb|---------------------------------------------------------------------------|

  WAH------------------------|
eb|---------------------------------------------------------------------------|
Bb|---------------------------------------------------------------------------|
Gb|--12fb-12-10-12-10~~------------------G-U-I-T-A-R------L-E-A-D-------------|
Db|---------------------12-10-------------------------------------------------|
Ab|---------------------------------------------------------------------------|
Eb|---------------------------------------------------------------------------|



(04:31)
eb|---------------------------------------------------------------------------|
Bb|-(20fb-20br)-20-18-20-pb20-20-18------17h18h20-20fb~~-20fbr-18-17-18p17----|
Gb|---------------------------------19~------------------------------------19-|
Db|---------------------------------------------------------------------------|
Ab|---------------------------------------------------------------------------|
Eb|---------------------------------------------------------------------------|

eb|-----------------------------------------15h17-18h20-20fb~~-20-20---20br---|
Bb|-----------------------------------17h18-----------------------------------|
Gb|--17h19-19--17\14------------17h19-----------------------------------------|
Db|------------------15---15h17-----------------------------------------------|
Ab|---------------------------------------------------------------------------|
Eb|---------------------------------------------------------------------------|



(04:42)
[Fill 2]                        PM-------------|                          PM-------------|
eb|-----------------------------------------------------------------------------------------|
Bb|-----------------------------------------------------------------------------------------|
Gb|-11-11-11---9--9--9/11--11-11------------------11-11-11---9--9--9--7-7-------------------| 3 TIMES
Db|-12-12-12--10-10-10/12--12-12------------------12-12-12--10-10-10--8-8-------------------|
Ab|-12-12-12--10-10-10/12--12-12------------------12-12-12--10-10-10--8-8-------------------|
Eb|-10-10-10---8--8--8/10--10-10--10-12-10-13-12--10-10-10---8--8--8--6-6---10-12-10-13-12--|

                                PM-------------|
eb|-----------------------------------------------------------------------------------------|
Bb|-----------------------------------------------------------------------------------------|
Gb|-11-11-11---9--9--9/11--11-11------------------11-11-11----------------------------------| 4th TIME
Db|-12-12-12--10-10-10/12--12-12------------------12-12-12----------------------------------|
Ab|-12-12-12--10-10-10/12--12-12------------------12-12-12----------------------------------|
Eb|-10-10-10---8--8--8/10--10-10--10-12-10-13-12--10-10-10---8--8--8--6-6~------------------|



(05:04)
[Outro]
eb|---------------------------------------------------------------------------|
Bb|---------------------------------------------------------------------------|
Gb|---------------------------------------------------------------------------|
Db|---------------------------------------------------------------------------|
Ab|---------------------------------------------------------------------------|
Eb|--6/10~~~-8~~~-6~--5~-6~~~--------8/10~~~--8h10p8~~~-5/8\6~~---------------|

eb|---------------------------------------------------------------------------|
Bb|---------------------------------------------------------------------------|
Gb|--------------------10---------10----10\9---10-----------------------------|
Db|--------------10-12----12---------12-----------10-10-/12-12----------------|
Ab|------8/10-12--------------------------------------------------------------|
Eb|--6/8----------------------------------------------------------------------|

eb|----------------------13---------------------------------------------------|
Bb|------------------13------17--13-------------------------------------------|
Gb|-----10-12/14~~~------------------12--12-/14~~~~---------------------------|
Db|--12-----------------------------------------------------------------------|
Ab|---------------------------------------------------------------------------|
Eb|---------------------------------------------------------------------------|


(05:25)
eb|--12---13-12---13p12-12---13p12-12-----------------------------------------|
Bb|------------------------------------13-------------------------------------|
Gb|---------------------------------------14----------------------------------|
Db|---------------------------------------------------------------------------|
Ab|---------------------------------------------------------------------------|
Eb|---------------------------------------------------------------------------|

eb|--12--13-12---13/15-15---13h15p13\12-12--13--------------------------------|
Bb|---------------------------------------------------------------------------|
Gb|---------------------------------------------------------------------------|
Db|---------------------------------------------------------------------------|
Ab|---------------------------------------------------------------------------|
Eb|---------------------------------------------------------------------------|

eb|-----12---13-12---13p12-12-------------------------------------------------|
Bb|----------------------------13---------------------------------------------|
Gb|--14-----------------------------------------------------------------------|
Db|-------------------------------15~~~---------------------------------------|
Ab|---------------------------------------------------------------------------|
Eb|---------------------------------------------------------------------------|

eb|-----12---12h13-12---13/15-15---13h15p13\12--12--/13-------13~~------------|
Bb|---------------------------------------------------------------------------|
Gb|--14-----------------------------------------------------------------------|
Db|---------------------------------------------------------------------------|
Ab|---------------------------------------------------------------------------|
Eb|---------------------------------------------------------------------------|









************************************

| x   Dead note
| g   Grace note
| (n) Ghost note
| h   Hammer-on
| p   Pull-off
| r   Release
| >   Accented note
| t   Tapping
| b   Bend
| br  Bend release
| pb  Pre-bend
| pbr Pre-bend release
| /   Slide up
| \   Slide down
| ~   Vibrato
| s   Slap
| P   Pop
| PM  Palm mute
| TR  Trill
| N   Tremolo

************************************

            
            
Suggest correction
Creating personal tab
Creating personal tab
You can edit any tab online and save it as your Personal.

You can edit, replace or remove any tab part or add personal notes – all changes will be seen only by you.

Personal tabs can be accessed anytime from any device, even offline.
Learn more »
Give kudos to tab author, rate the tab!
1 2 3 4 5
comments
print report bad tab
5 comments total. Showing first comments.
0 reply
ajanddino 935 Mar 22, 2016 06:23 PM

another great tab.

0 reply
308680162 10 Jun 19, 2016 01:54 PM

but how to read the duration of each note?

guest
You may want to rate the tab now too:
select rating
Wanna post a correction for this tab? Suggest correction