Oops, an error
Loading. Please wait.

Nottingham Lace solo tab

version 2
version 2

Whole song

Interactive

4,429 views 1 this week
1 commentread comment
1 2 3 4 5
1 last vote to show rating
add to favorites
×
Save as Personal and add changes to this tab that will be seen only by you. Learn more ›
×
You can save this tab as Personal to edit and correct it or add notes. All changes will be seen only by you. Learn more »
launch autoscroll
font size
0
reset
how to read this tab
guitar tuner
backing track
0:00
0:00
edit
Autoscroll
slow
fast
+/-
esc
set tempo
stop
Author
Difficulty
this is from bingeandgrab.com i didnt see any solo tabs for this song so i thought i would add one.

e----------------------------------------------------------------|
b------------------------------------------------11br(13)--8\7~~-|
G-7h8p7^^^--7h8p7\5~~--7h8p7^^^--7h8p7\5~~--7h8------------------|
D----------------------------------------------------------------|
A----------------------------------------------------------------|
E----------------------------------------------------------------|
B----------------------------------------------------------------|

e------------------------------------------------------------------------|
b---------------------------------------------------------11br(13)p8p7~~-|
G-7!h8p7^^^--7h8p7\5~~--7h8p7^^^--8br(10)--7--5--7h8p7-7b(8)--5~~--8-----|
D------------------------------------------------------------------------|
A------------------------------------------------------------------------|
E------------------------------------------------------------------------|
B------------------------------------------------------------------------|


e-10h11p10--11/13--13b(15)-(15)!^^^r13--11--10h11p10h11/13--13b(15)--(15)r13--11h13p11---|
b-11-------------------------------------------------------------------------------------|
G----------------------------------------------------------------------------------------|
D----------------------------------------------------------------------------------------|
A----------------------------------------------------------------------------------------|
E----------------------------------------------------------------------------------------|
B----------------------------------------------------------------------------------------|

(3:00)
e-13b(15)-(15)r13--10-10b(11)r10--11--10h11p10--13b(15)-------------------|
b-------------------------------------------------------------------------|
G-------------------------------------------------------------------------|
D-------------------------------------------------------------------------|
A-------------------------------------------------------------------------|
E-------------------------------------------------------------------------|
B-------------------------------------------------------------------------|

(3:55)
e---11--10--11-------11--10--11--------11--10--11--11b(13)--(13)rb11--10~~-10---|
b-6--6/8--------------6--6/8--------------6--6/8--------------------------------|
G-------------------------------------------------------------------------------|
D-------------------------------------------------------------------------------|
A-------------------------------------------------------------------------------|
E-------------------------------------------------------------------------------|
B-------------------------------------------------------------------------------|

e---------11--10--11----------11--10--11----------11--10--11--13b(15)-(15)^^^-(15)rb13--11~~-|
b-6--6/8--------------6--6/8--------------6--6/8---------------------------------------------|
G--------------------------------------------------------------------------------------------|
D--------------------------------------------------------------------------------------------|
A--------------------------------------------------------------------------------------------|
E--------------------------------------------------------------------------------------------|
B--------------------------------------------------------------------------------------------|

end riff similar to solo rhythm track (6:22-6:26)
e--------------------------------------------------|
b--8--4--8--4--3--4--6--3--8--4--8--4--3--4--6--4--|
G--------------------------------------------------|
D--------------------------------------------------|
A--------------------------------------------------|
E--------------------------------------------------|
B--------------------------------------------------|

e--------------------------------------|
b--------------------------------------|
G--------------------------------------|
D--------------------------------------|
A--------6--6--------6--6--------6--6--|
E--------6--6--------6--6--------6--6--|
B--------4--4--------4--4--------4--4--|(drum fill)
heavy PM on chords

(6:26-6:30)
e---------|
b---------|
G---------|
D---------|
A-3--3----|
E-3--3----|
B-1--1----|
let second one ring

            
            
Suggest correction
Creating personal tab
Creating personal tab
You can edit any tab online and save it as your Personal.

You can edit, replace or remove any tab part or add personal notes – all changes will be seen only by you.

Personal tabs can be accessed anytime from any device, even offline.
Learn more »
Give kudos to tab author, rate the tab!
1 2 3 4 5
comments
print report bad tab
1 comment total.
-1 reply
Bucketheadroolz 141 Sep 27, 2007 03:41 PM

your cheating kenny............your not da bomb anymore

guest
You may want to rate the tab now too:
select rating
Wanna post a correction for this tab? Suggest correction