Oops, an error
Loading. Please wait.

Onions Unleashed Tab

version 1
version 1

Whole song

Interactive

1,576 views 3 this week
2 commentsread comments
1 2 3 4 5
x 3
add to favorites
launch autoscroll
font size
0
reset
how to read this tab
guitar tuner
Autoscroll
slow
fast
+/-
esc
set tempo
stop
Help us to improve Ultimate-Guitar.com Take our survey!
×
Standard tuning

beginning riff
|-------------|
|-------------|
|-------------|
|777--5-3-3---|
|777--5-3-3---|
|555--3-1-1---|
end beginning rif by ringing out
|--|
|--|
|--|
|5-|
|5-|
|3-|

main riff
|---------------------|
|---------------------|
|-------------------3-|
|2-2-2-223--2-2-2-223-|
|2-2-2-223--2-2-2-221-|
|0-0-0-001--0-0-0-00--|


riff 2
|-4444--0----4444---4----------|
|-4444--0----4444-----4--------|
|-6666--2----6666--------6-----|
|-6666--2----6666----------6---|
|-4444--0----4444--------------|
|------------------------------|

ending riff
|------|
|------|
|------|
|2-2-2-|
|2-2-2-|
|0-0-0-|
Suggest correction
Give kudos to tab author, rate the tab!
1 2 3 4 5
comments
print report bad tab
2 comments total.
0 reply
ch153 61 Feb 24, 2009 10:58 PM

riff 2
riff 2
|-4444--0----4444---0----------|

+1 reply
ch153 61 Feb 24, 2009 11:01 PM

Crap...change that 4 on the E string to an open string in Riff 2 at the end. I like this song alot because the guitar is very interesting.

guest
You may want to rate the tab now too:
select rating
Wanna post a correction for this tab? Suggest correction