Oops, an error
Loading. Please wait.

Padmasana Tab

version 1
version 1

Whole song

Interactive

69,804 views 39 this week
20 commentsread comments
1 2 3 4 5
excellent!
x 32
add to favorites
launch autoscroll
font size
0
reset
how to read this tab
guitar tuner
Autoscroll
slow
fast
+/-
esc
set tempo
stop
Help us to improve Ultimate-Guitar.com Take our survey!
×
Author
Vantage 945
Many parts of guitar 2 are missing, but listen carefully to the song.

UPDATED: Fixed the main riff
Main Riff
e|---------------------------|
B|---------------------------|
G|----4-3h4p3----------------|
D|-----------------2-2s4s2-2-|
A|---6-6-----6----2-2-----2--|
E|--4------------0-----------|


  This part starts at 00:24 i think
e|------------------------------------------|
B|--------7s9s7---------------11---------11-|
G|--6-6s8-------6-6s8-------11---------11---| x2
D|--8-8s9-------8-8s9---8h9---------8h9-----|
A|------------------------------------------|
E|------------------------------------------|

e|-----------------------------------------------------|
B|--------7s9s7----------------9-7---------------------|
G|--6-6s8-------6-6s8----6-6s8----8-6-6-6h8-4----3-4---|
D|--8-8s9-------8-8s9----8-8s9------------------6------|
A|-----------------------------------------------------|
E|-----------------------------------------------------|

e|---------------------------------------------------------------------------------------------------------------------11-14-12-11-11-11h12---|
B|-11-12-12s14--12p11-11h12---11-12-12s14-----16-16-14-14------12-11-------------------------------------------------12--------------------12~|
G|-------------------------11-----------------16-16-15-15-----------11---------------------------------------------13-------------------------|
D|--------------------------------------------------------------------11-11h13--------------11-13-13h14p13p11h13~-----------------------------|
A|----------------------------------------------------------------------------------11-13-14--------------------------------------------------|
E|--------------------------------------------------------------------------------------------------------------------------------------------|

e|--------------------------14-----12-11------------------|
B|-11h12h14---------------12-----12-----14-12-11----------|
G|---------11-----------13-----13----------------11-11h13-|
D|-----------11-11h13-------------------------------------|
A|--------------------------------------------------------|
E|--------------------------------------------------------|

e|----------------------------------------------9-7-6----------6-9-7-6-6-6h7-------6b7r6------9b10r9-7h9p7-6-|
B|-6-----7-7s9---------------------------------------7--------9-------------7-----7-----7--------------------|
G|-8--6s8------6h8-6-------4s6-6s8--------6-8-9-------6------6-------------------6-------4-------------------|
D|-------------------9-8-9-----------6-8-9-------------------------------------------------------------------|
A|-----------------------------------------------------------------------------------------------------------|
E|-----------------------------------------------------------------------------------------------------------|

e|------14-12-11-11-12-----18-18-16-16-18----------18-18-16-16----------------|
B|-11-12--------------12------------------16-16h18------------18-18-16-16h18--|
G|----------------------------------------------------------------------------|
D|----------------------------------------------------------------------------|
A|----------------------------------------------------------------------------|
E|----------------------------------------------------------------------------|

e|---7-6------7-6-9-7-6h7-----7-6------------7-14-12-11-11h12----|
B|--7---7----7-----------7---7---7----------7----------------12--|
G|-8-----6--8---------------8-----6--6h8---8---------------------|
D|---------------------------------------------------------------|
A|---------------------------------------------------------------|
E|---------------------------------------------------------------|

e|--6h7p6------------12-12-11-11--------6h7p6--------------------------------9-----------------10p9s7s6h7p7------|
B|-------7-----------14-14-12-12-14-12-------7--------9-9h11-9--11---12-12-11---11-11---16-16---------------7----|
G|-8------4s6s8~-----------------15-13--------4s6s8-------------11---13-13-11---11-11---16-16----------------6s8-|
D|---------------------------------------------------------------------------------------------------------------|
A|---------------------------------------------------------------------------------------------------------------|
E|---------------------------------------------------------------------------------------------------------------|

Guitar 2 enters
e|-14b16-14h16-14-------------------|
B|---------------16-14--12-14-16-12-|
G|----------------------------------|
D|----------------------------------|
A|----------------------------------|
E|----------------------------------|

Guitar 1
e|-------------------11-----------------------------------14-14-14-14-14-11--14-14-14-14-14-11--|
B|-9-11-12-11-12p11p9----------4-5-7---4-5-7--------------12-12-16-16-14-12--12-12-16-16-14-12--|
G|----------------------------------4-------4-3-3h4p3-------------------------------------------|
D|---------------------------------------------------6------------------------------------------|
A|----------------------------------------------------------------------------------------------|
E|----------------------------------------------------------------------------------------------|

e|-----11---------------------11--------------------11---------------------|
B|---12---14-12-11h12-------12---14-12-11h12------12--14-12-11h12----------|
G|-13-----------------13--13----------------13--13---------------11--------|
D|------------------------------------------------------------------11h13--|
A|-------------------------------------------------------------------------|
E|-------------------------------------------------------------------------|

e|-----------------------------------------------|
B|-----------------------------------------------|
G|-6-8--6-8-9-8h9p8p6h8--6-4-----9-8-6-8------6--|
D|-8-9------------------------6-9----------6-9-9-|
A|-----------------------------------------------|
E|-----------------------------------------------|

e|----------------6----------------|
B|---7---7-----7---7---------------|
G|--8---8-8---8-8---8------9-8s9---| 8x
D|-9---9---9-9-------9----6-----9--|
A|-----------------------7--7----7-|
E|---------------------------------|


After the section above

e|---------------------------|
B|---------------------------|
G|----4-3h4p3----------------|
D|-----------------2-2s4s2-2-|
A|---6-6-----6----2-2-----2--|
E|--4------------0-----------|


Guitar 2
e|----------------------------------------------------9s6b7--9p7h9s11s14-14s16-16p14------|
B|-------------14b15r14--14b15-12-11b12r11-9-9----9-12------------------------------14h16-|
G|----------------------------------------------------------------------------------------|
D|-----9h11-13----------------------------------------------------------------------------|
A|-9h11-----------------------------------------------------------------------------------|
E|----------------------------------------------------------------------------------------|

e|-14--------------------------------------16----18s19s18------------------|
B|-15b16-14p12-14-14b15-12-11b12-9-9--12s14---14---------9-19-14-12-11b12--|
G|-------------------------------------------------------------------------|
D|-------------------------------------------------------------------------|
A|-------------------------------------------------------------------------|
E|-------------------------------------------------------------------------|

e|--------------------------------------------------|
B|-----7-7s9----------------------------------------|
G|-6h8------6h7p6--------------------4h6-6s8-4-6-4~-|
D|----------------9-6h9~----------24----------------|
A|-----------------------------2-4------------------|
E|--------------------------2-4---------------------|

e|--------------------------14b16------------------------|
B|-11----12--12h14p12-11b12------14b15-14b15r12-11b12-9--|
G|-15----16----------------------------------------------|
D|-------------------------------------------------------|
A|-------------------------------------------------------|
E|-------------------------------------------------------|

e|-----------------------------11-11h12---------12s14-12-11h12h11-----11-11h12----|
B|---------------------11-12-14---------------------------------------------------|
G|-------------------------------------13--13-13-----------------11s13--------13--|
D|------11-11h13p11-13------------------------------------------------------------|
A|-11h14--------------------------------------------------------------------------|
E|--------------------------------------------------------------------------------|

e|------12s14-12-11h12h11-------11-11h12---------12s14-12-11h12p11------11-11h12-----|
B|-----------------------------------------------------------------------------------|
G|-13-13-------------------11s13--------13--13-13------------------11s13---------13--|
D|-----------------------------------------------------------------------------------|
A|-----------------------------------------------------------------------------------|
E|-----------------------------------------------------------------------------------|

e|--------------------------------------------------------------------------------|
B|---------------------------------------------11-11s12-----------12-14-12-14s16--|
G|-13p11--11h13--------------------------------11-11s13---------------------------|
D|-------------11h13---11h12h11---11h13----------------11-------------------------|
A|------------------------------14-----------------------11-11h13-----------------|
E|--------------------------------------------------------------------------------|

e|-14----------------------------------------------------------------------------------------------|
B|---15b16---12h14p12~~-----11s12-19s16-11s14--11--7-7s9---11-11s12--19--12-12s14--17-16-16s17s16--|
G|-------------------------------------------------------------------------------------------------|
D|--------------------------8s9---16s13-9s11---8---3-3s6---8--8s9----16--9--9s11---14-13-13s14s13--|
A|-------------------------------------------------------------------------------------------------|
E|-------------------------------------------------------------------------------------------------|


You should actually play around starting at this part of the song, but I'll give it a try.
e|------------------------------------------------------------------------------------------------|
B|--------------------------------------------------12s14-11s12s11--------------------------------|
G|-----------------11------------7b8-------------------------------13-13--12b13-11h13-11----------|
D|---9-11s13p11------11-9-9h11-9--------11--9-------------------------------------------13-11s13--|
A|-11---------------------------------11--11------------------------------------------------------|
E|------------------------------------------------------------------------------------------------|

e|-------------------------|
B|---11-12s14-12-14-14s16--|
G|-13----------------------|
D|-------------------------|
A|-------------------------|
E|-------------------------|

e|---18-19----------|
B|-16-----19-17-16--|
G|------------------| 8x
D|------------------|
A|------------------|
E|------------------|

Then he does the intro again =D

Hope you like the tab. Enjoy
Suggest correction
What's this?
You can suggest a correction to this tab. Community and Mods will review your correction and vote to approve or reject it.
comments
print report bad tab
20 comments total. Showing first comments.
+5 reply
Iron_Dude 74 wrote on May 5 2007, 07:36 pm

This is my favorite acoustic Buckethead song. Thanks for tabbing it out. I just wish more could hear this song.

0 reply
Sav6189 11 wrote on May 26 2007, 03:47 am

this is a good song. thanks for tabbing it.

0 reply
Vantage 945 wrote on June 3 2007, 03:58 am

You're all welcome. =D

guest
You may want to rate the tab now too:
select rating
Please do not post tabs as comments. Select "correction" instead!