Oops, an error
Loading. Please wait.

Peppers Ghost Tab

version 1
version 1

Whole song

Interactive

13,405 views 15 this week
12 commentsread comments
1 2 3 4 5
x 45
add to favorites
launch autoscroll
font size
0
reset
how to read this tab
guitar tuner
Autoscroll
slow
fast
+/-
esc
set tempo
stop
Help us to improve Ultimate-Guitar.com Take our survey!
×
Author
----------------------------------------------------------------------------
                         Pepper's Ghost - Buckethead
----------------------------------------------------------------------------
Tabbed by: SlickNiK105
Email: slicknikp@gmail.com

Tuning: Drop E-Flat (Eb-A-D-G-B-e)


I love Buckethead and I was somewhat disappointed to find that a tab of this song does not
exist on the internet.  So I learned this by ear and
tabbed it for all the Buckethead fans out there who also could not find the tabs to it.  
my first tab.


4/4 [with delay]
e |------------|----------------|-11--11--11-----|----------------|
B |-9--9--9----|-12--12--12-----|-------------12-|-12--12--12-----|
G |----------9-|-------------13-|----------------|-------------9--|  x2
D |------------|----------------|----------------|----------------|
A |------------|----------------|----------------|----------------|
Eb|------------|----------------|----------------|----------------|


3/4 [no delay]
e |------------------|------------------|-----------------|--------------|
B |-14-14-14\-9-9-9/-|-14-14-14\-9-9-9/-|-14-14-14\-9-9-9-|-7-7-7-7-7-7/-|
G |-13-13-13\-8-8-8/-|-13-13-13\-8-8-8/-|-13-13-13\-8-8-8-|-6-6-6-6-6-6/-|
D |-14-14-14\-9-9-9/-|-14-14-14\-9-9-9/-|-14-14-14\-9-9-9-|-8-8-8-8-8-8/-|
A |------------------|------------------|-----------------|--------------|
Eb|------------------|------------------|-----------------|--------------|

e |------------------|------------------|-----------------|-------------|
B |-14-14-14\-9-9-9/-|-14-14-14\-9-9-9/-|-14-14-14\-9-9-9-|-7-7-7-7-7-7-|
G |-13-13-13\-8-8-8/-|-13-13-13\-8-8-8/-|-13-13-13\-8-8-8-|-6-6-6-6-6-6-|
D |-14-14-14\-9-9-9/-|-14-14-14\-9-9-9/-|-14-14-14\-9-9-9-|-8-8-8-8-8-8-|
A |------------------|------------------|-----------------|-------------|
Eb|------------------|------------------|-----------------|-------------|


4/4
e |----------------------------|----------------------------|
B |----------------------------|----------------------------|
G |----------------------------|----------------------------|
D |--------3-4-5-5-4-3---------|--------3-4-5-5-4-3---------|
A |-4~--4--------------5-5-4-3-|-4~--4--------------5-5-4-3-|
Eb|----------------------------|----------------------------|
          |____palm muted_____|        |____palm muted_____|

e |----------------------------|----------------------------|
B |----------------------------|----------------------------|
G |----------------------------|----------------------------|  x2
D |----------------------------|----------------------------|
A |--------3-4-5-5-4-3---------|--------3-4-5-5-4-3---------|
Eb|-4~--4--------------5-5-4-3-|-4~--4--------------5-5-4-3-|
          |____palm muted_____|        |____palm muted_____|


4/4 [another guitar in background palm-mutes the note on the A-string throughout the riff]
e |----------------|----------------|----------------|----------------|
B |----12--10--9---|----9---7---5---|----5---7---5---|----4---5---4---|
G |----9---9---9---|----9---8---6---|----4---4---4---|----2---2---2---|  x4
D |----------------|----------------|----------------|----------------|
A |4444444444444444|4444444444444444|4444444444444444|4444444444444444|
Eb|----------------|----------------|----------------|----------------|


4/4
e |----------------------------|----------------------------|
B |----------------------------|----------------------------|
G |----------------------------|----------------------------|
D |--------3-4-5-5-4-3---------|--------3-4-5-5-4-3---------|
A |-4~--4--------------5-5-4-3-|-4~--4--------------5-5-4-3-|
Eb|----------------------------|----------------------------|
          |____palm muted_____|        |____palm muted_____|

e |----------------------------|----------------------------|
B |----------------------------|----------------------------|
G |----------------------------|----------------------------|  x2
D |----------------------------|----------------------------|
A |--------3-4-5-5-4-3---------|--------3-4-5-5-4-3---------|
Eb|-4~--4--------------5-5-4-3-|-4~--4--------------5-5-4-3-|
          |____palm muted_____|        |____palm muted_____|


4/4 [with delay]
e |------------|----------------|
B |-9--9--9----|-12--12--12-----|
G |----------9-|-------------13-|
D |------------|----------------|
A |------------|----------------|
Eb|------------|----------------|


3/4 [no delay]
e |------------------|------------------|-----------------|--------------|
B |-14-14-14\-9-9-9/-|-14-14-14\-9-9-9/-|-14-14-14\-9-9-9-|-7-7-7-7-7-7/-|
G |-13-13-13\-8-8-8/-|-13-13-13\-8-8-8/-|-13-13-13\-8-8-8-|-6-6-6-6-6-6/-|
D |-14-14-14\-9-9-9/-|-14-14-14\-9-9-9/-|-14-14-14\-9-9-9-|-8-8-8-8-8-8/-|
A |------------------|------------------|-----------------|--------------|
Eb|------------------|------------------|-----------------|--------------|

e |------------------|------------------|-----------------|-------------|
B |-14-14-14\-9-9-9/-|-14-14-14\-9-9-9/-|-14-14-14\-9-9-9-|-7-7-7-7-7-7-|
G |-13-13-13\-8-8-8/-|-13-13-13\-8-8-8/-|-13-13-13\-8-8-8-|-6-6-6-6-6-6-|
D |-14-14-14\-9-9-9/-|-14-14-14\-9-9-9/-|-14-14-14\-9-9-9-|-8-8-8-8-8-8-|
A |------------------|------------------|-----------------|-------------|
Eb|------------------|------------------|-----------------|-------------|


5/4
e |-------18-------16-|-----------------16-|
B |-----16-------16---|-----16-18-----16---|
G |---15-------15-----|---15--------15-----|
D |-13-------13-------|-13--------13-------|
A |-------------------|--------------------|
Eb|-------------------|--------------------|

e |-------18-------16-|-----------------16-|
B |-----16-------16---|-----16-18-----16---|
G |---15-------15-----|---15--------15-----|
D |-13-------13-------|-13--------13-------|
A |-------------------|--------------------|
Eb|-------------------|--------------------|

e |-------14-------12-|-----------------12-|
B |-----12-------12---|-----12-14-----12---|
G |---11-------11-----|---11--------11-----|
D |-9--------9--------|-9---------9--------|
A |-------------------|--------------------|
Eb|-------------------|--------------------|

e |-------14-------12-|-----------------12-|
B |-----12-------12---|-----12-14-----12---|
G |---11-------11-----|---11--------11-----|  x2
D |-9--------9--------|-9---------9--------|
A |-------------------|--------------------|
Eb|-------------------|--------------------|


4/4 [with wah-pedal]
e |------------|------------|
B |------------|------------|
G |------------|------------|  x4
D |------------|------------|
A |----------1-|(1)---------|
Eb|-0--0--1----|------------|


4/4 [still some wah action]
e |------------|---------------|
B |------------|---------------|
G |------------|---------------|  x4
D |----------3-|(3)---3--3--3--|
A |-1--1--2--1-|(1)---1--1--1--|
Eb|-0--0--1----|---------------|
                      ^  ^
           [for these two chords, slightly palm-mute after strumming]


4/4 [with wah-pedal]
e |------------|------------|
B |------------|------------|
G |------------|------------|
D |------------|------------|
A |----------1-|(1)---------|
Eb|-0--0--1----|------------|


6/4 [no more wah]
e |-------16----------16----|------17----------17----|
B |-----14--14------14--14--|----15--15------15--15--|
G |---13------13--13------13|--14------14--14------14|  x4
D |-11----------11----------|12----------12----------|
A |-------------------------|------------------------|
Eb|-------------------------|------------------------|


4/4 [two guitars here]
          e |-7--7--7-----7--7--7-----|6--6--6-----6--6--6-----|
          B |-8--7--8-----8--7--8-----|7--6--7-----7--6--7-----|
  guitar  G |-9--9--9-----9--9--9-----|8--8--8-----8--8--8-----|
    1     D |-------------------------|------------------------|
          A |-------------------------|------------------------|
          Eb|-------------------------|------------------------|
            |                                                  |  x2
          e |-------------------------|------------------------|
          B |-------------------------|------------------------|
  guitar  G |-------------------------|------------------------|
    2     D |-9--9--9---------------xx|8--8--8---------------xx|
          A |-7--7--7---xx9--9--9---xx|6--6--6---xx8--8--8---xx|
          Eb|-----------xx8--8--8-----|----------xx7--7--7-----|


6/4 [one guitar]
e |-------16----------16----|------17----------17----|
B |-----14--14------14--14--|----15--15------15--15--|
G |---13------13--13------13|--14------14--14------14|
D |-11----------11----------|12----------12----------|
A |-------------------------|------------------------|
Eb|-------------------------|------------------------|


4/4 [two guitars]
          e |-7--7--7-----7--7--7-----|
          B |-8--7--8-----8--7--8-----|
  guitar  G |-9--9--9-----9--9--9-----|
    1     D |-------------------------|
          A |-------------------------|
          Eb|-------------------------|
            |                         |
          e |-------------------------|
          B |-------------------------|
  guitar  G |-------------------------|
    2     D |-9--9--9---xx------------|
          A |-7--7--7---xx9--9--9-----|
          Eb|-----------xx8--8--8-----|


6/4 [one guitar]
e |-------16----------16----|------17----------17----|
B |-----14--14------14--14--|----15--15------15--15--|
G |---13------13--13------13|--14------14--14------14|
D |-11----------11----------|12----------12----------|
A |-------------------------|------------------------|
Eb|-------------------------|------------------------|


4/4
e |-------------------|----------------|
B |-------------------|----------------|
G |-------------------|----------------|  x4
D |-6--------4------6-|----------------|
A |-44444444-222222-44|44444444--------|
Eb|-------------------|--------56665666|
     |__pm__| |_pm_| |_______pm________|


4/4 [all palm-muted]
e |------------------------|------------------------|
B |------------------------|------------------------|
G |------------------------|------------------------|
D |----------3--6--3--5--6-|----------3--6--3--5--6-|
A |-------3----------------|-------3----------------|
Eb|2-2-2-------------------|2-2-2-------------------|

e |------------------------|------------------------|
B |------------------------|------------------------|
G |------------------------|------------------------|  x2
D |----------6--9--6--8--9-|----------6--9--6--8--9-|
A |-------6----------------|-------6----------------|
Eb|5-5-5-------------------|5-5-5-------------------|


2/4
e |-66666-----|
B |-66666-----|
G |-88888-----|  x4
D |-----------|
A |-----------|
Eb|-----------|


4/4 [all palm-muted]
e |--------------------------|-----------------------------|
B |--------------------------|-----------------------------|
G |-8-----8-------6-----6----|-4-----4-------3-----3----3--|  x4
D |-----6---6---------4---4--|-----2---2---------1---1--1--|
A |--------------------------|-----------------------------|
Eb|--------------------------|-----------------------------|


4/4 [still palm-muted]
e |------------------------|------------------------|
B |------------------------|------------------------|
G |------------------------|------------------------|
D |----------3--6--3--5--6-|----------3--6--3--5--6-|
A |-------3----------------|-------3----------------|
Eb|2-2-2-------------------|2-2-2-------------------|

e |------------------------|------------------------|
B |------------------------|------------------------|
G |------------------------|------------------------|  x2
D |----------6--9--6--8--9-|----------6--9--6--8--9-|
A |-------6----------------|-------6----------------|
Eb|5-5-5-------------------|5-5-5-------------------|


4/4
e |-------------------|----------------|
B |-------------------|----------------|
G |-------------------|----------------|  x4
D |-6--------4------6-|----------------|
A |-44444444-222222-44|44444444--------|
Eb|-------------------|--------56665666|
     |__pm__| |_pm_| |_______pm________|


4/4
e |-----------9-------------------|------------------------------|
B |-----------11-11-11----11---11-|------------------------------|
G |-6-----6------11-11/13-11---11-|-4-----4----------------------|  x4
D |-6-----6------11-11/13-11---11-|-4-----4/--9-9-9-----9---9-9\-|
A |-4-----4------9--9-/11-9----9--|-2-----2/--7-7-7\6---6/7-7-7\-|
Eb|-------------------------------|------------------------------|


3/4
e |------------------|------------------|-----------------|--------------|
B |-14-14-14\-9-9-9/-|-14-14-14\-9-9-9/-|-14-14-14\-9-9-9-|-7-7-7-7-7-7/-|
G |-13-13-13\-8-8-8/-|-13-13-13\-8-8-8/-|-13-13-13\-8-8-8-|-6-6-6-6-6-6/-|
D |-14-14-14\-9-9-9/-|-14-14-14\-9-9-9/-|-14-14-14\-9-9-9-|-8-8-8-8-8-8/-|
A |------------------|------------------|-----------------|--------------|
Eb|------------------|------------------|-----------------|--------------|

e |------------------|------------------|-----------------|-------------|
B |-14-14-14\-9-9-9/-|-14-14-14\-9-9-9/-|-14-14-14\-9-9-9-|-7-7-7-7-7-7-|
G |-13-13-13\-8-8-8/-|-13-13-13\-8-8-8/-|-13-13-13\-8-8-8-|-6-6-6-6-6-6-|
D |-14-14-14\-9-9-9/-|-14-14-14\-9-9-9/-|-14-14-14\-9-9-9-|-8-8-8-8-8-8-|
A |------------------|------------------|-----------------|-------------|
Eb|------------------|------------------|-----------------|-------------|


Please rate high because it's hard to find and it took a lot of time.
Thanks.


| /  slide up
| \  slide down
| h  hammer-on
| p  pull-off
| ~  vibrato
| +  harmonic
| x  Mute note
|(-) note carried on from previous measure
============================================================================
Suggest correction
comments
print report bad tab
12 comments total. Showing first comments.
0 reply
SerratedV13 10 Apr 09, 2007 07:36 PM

dude this tab is awesome, so's the song

0 reply
bucketheaddude 10 Jul 25, 2007 11:21 PM

nicely done dude!!!

0 reply
WhaTever4 188 Sep 05, 2007 07:44 PM

This is a really badass song, thank you.You should cheack out my
plastination station tab I think you will like it.

guest
You may want to rate the tab now too:
select rating
Wanna post a correction for this tab? Suggest correction