Oops, an error
Loading. Please wait.

Phantom Lights Tab

1,424 views 6 this week
1 commentread comment
1 2 3 4 5
please rate
add to favorites
launch autoscroll
font size
0
reset
how to read this tab
guitar tuner
Tab Pro tools
  • play this tab
  • loop segment
  • change instrument
  • show fretboard
  • metronome
×
Best way to learn
"Phantom Lights"
Autoscroll
slow
fast
+/-
esc
set tempo
stop
Contributor
Difficulty
intermediate
-------------------------------------------------------------------------------
			     PHANTOM LIGHTS - Buckethead
-------------------------------------------------------------------------------
Tabbed by: Aaron McMahon
Email: otakugeek@hotmail.com

Tuning: Standard

e|---------------------16------------------------------------------------------|
B|--16b(18)r-14-16b(18)---(18)-(18)-(18)r--14h16--16b(18)--16-------------14---|
G|-------------------------------------------------------------15--13h15-------|
D|-----------------------------------------------------------------------------|
A|-----------------------------------------------------------------------------|
E|-----------------------------------------------------------------------------|

e|---------------------------------------------------------------------------|
B|--9-------------------9------------------------------------------9--11-----|
G|-----8b(9)-8b(9)----6---8-6-8--6h8-6h8-6h8--6---6-----------6--------------|
D|----------------------------------------------8------6tr8------------------|
A|---------------------------------------------------------------------------|
E|---------------------------------------------------------------------------|

e|--11b(12)-11b(12)--11--9h11-9h11-9h11--11b(12)r--9------------|
B|---------------------------------------------------11---------|
G|--------------------------------------------------------------|
D|--------------------------------------------------------------|
A|--------------------------------------------------------------|
E|--------------------------------------------------------------|

e|---------------------------------------------------------------------16----|
B|--11p9-9-9---------------------------/11---14h16-14p13-13--13h14p13--------|
G|-----------11p10-10h11-------10-8------------------------------------------|
D|-----------------------11---------11---------------------------------------|
A|---------------------------------------------------------------------------|
E|---------------------------------------------------------------------------|

e|--14p13-13--14h16--16b(18)--16b(18)~~~~r--16----------------------------------|
B|-----------------------------------------------16b(18)r-14-16b(18)-14-14-14---|
G|------------------------------------------------------------------------------|
D|------------------------------------------------------------------------------|
A|------------------------------------------------------------------------------|
E|------------------------------------------------------------------------------|

e|-----------------------------------------------------------------------------|
B|-----------------------------------------------------------------------------|
G|-------13-10-------------------------10--------------------------------------|
D|--13---------13-11------------11--13----11-13---------11-11-11-11------------|
A|-------------------13-11-13-------------------11-13-----------------13-------|
E|------------------------------------------------------------------------13---|

e|------------------------------------------------------------------------------|
B|------------------------------------------------------------------------------|
G|------------------------------------------------------------------------------|
D|-----------------------------11-10---11h13p11h13--11h13-11h13-11h13-11h13-11--|
A|-----------------------11-13--------------------------------------------------|
E|--9---8---11b(12)r--13--------------------------------------------------------|

e|-------------------------11b(13)r--9\8-8-8h9/11/13/16--16/18---18p16----------------|
B|--------------10h11---14---------------------------------------------18-16--16h18---|
G|--/13---10-13-----------------------------------------------------------------------|
D|------------------------------------------------------------------------------------|
A|------------------------------------------------------------------------------------|
E|------------------------------------------------------------------------------------|

e|--16h18--------------------------------------------------------------------|
B|--------16h18p16--14---16-14h16p14--13-14p13\11--11--11h13p11--------------|
G|---------------------------------------------------------------10--10/13---|
D|---------------------------------------------------------------------------|
A|---------------------------------------------------------------------------|
E|---------------------------------------------------------------------------|

e|-----------------------------------------------|
B|-----------------------------------------------|
G|--11h13p11\10h11p10----------------------------|
D|---------------------13-13-11-11-10-10/22------|
A|-----------------------------------------------|
E|-----------------------------------------------|


e|-------------------------------------------------|
B|--11-11-13-13b(14)r-11---------------------------|
G|O----------------------13-13-11-11-10-10-11-----O|  x7  (with slight variations)
D|O------------------------------------------11---O|
A|-------------------------------------------------|
E|-------------------------------------------------|

e|-------------------------9--11b(12)r~~~----11b(13)--14b(16)--16b(18)r------|
B|--11-11-13-13b(14)r~~~-----------------------------------------------------|
G|---------------------------------------------------------------------------|
D|---------------------------------------------------------------------------|
A|---------------------------------------------------------------------------|
E|---------------------------------------------------------------------------|

e|--14--13h14--------------16----------------------------------------|
B|------------14---13b(14)----(14)r--11------------------------------|
G|----------------------------------------14-------------------------|
D|-------------------------------------------14h15p14----14----------|
A|----------------------------------------------------17----14-17----|
E|-------------------------------------------------------------------|


					Outro
e|---------------------------------------------------------------------------------|
B|---------------------------------------------------------------------------------|
G|---------------------------------------13--15-15-13-13-15-15-13-13-15-15-13-13---|
D|--11/13--13--13/15--15--15/18----------------------------------------------------|
A|---------------------------------------------------------------------------------|
E|---------------------------------------------------------------------------------|

e|---------------------------------------------------------------------------|
B|--------------------------------------------------------14-14-16-16--------|
G|--15-15-13-13-15-15-13-13-15-15-18-18-15-15-13-13-15-15--------------------|
D|---------------------------------------------------------------------------|
A|---------------------------------------------------------------------------|
E|---------------------------------------------------------------------------|

e|------------------------------------------------------------------------|
B|--13-13-14-14-----------------------------------------------------------|
G|--------------13-13-15-15-----------------------------------------------|
D|--------------------------15-15-16-16-13-13-11-1-10-10-8-8-8-8----------|
A|---------------------------------------------------------------8-8------|
E|-------------------------------------------------------------------9-9--|

e|-----------------------------|
B|-----------------------------|
G|----------------------6------|
D|-------------------10--------|
A|-----------------8-----------|
E|--8-8-8-8-----6--------------|


| /  slide up
| \  slide down
| b  bend
| () bend to
| r  release bend
| tr trill
| h  hammer-on
| p  pull-off
| ~  vibrato
| +  harmonic
| x  Mute note
===============================================================================
comments
We did not receive enough feedback on this tab! Please rate:
print report bad tab
1 2 3 4 5
1 comment total.
0 reply
toine wrote on February 21 2009, 12:08 pm

nice job!

I want to post or [tab]
guest
You may want to rate the tab now too:
select rating
Please do not post tabs as comments. Select "correction" instead!