Oops, an error
Loading. Please wait.

Pinbones And Poultry Tab

183 views 1 this week
no commentswrite comment
1 2 3 4 5
please rate
add to favorites
launch autoscroll
font size
0
reset
how to read this tab
guitar tuner
Tab Pro tools
  • play this tab
  • loop segment
  • change instrument
  • show fretboard
  • metronome
×
Best way to learn
"Pinbones And Poultry"
Autoscroll
slow
fast
+/-
esc
set tempo
stop
HottestTabs [http://www.hottesttabs.com]
Pinbones and Poultry by Buckethead
from Somewhere over the Slaughterhouse

on this song Buckethead goes for a drop-D tuning on the guitar and uses a distortion pedal.
I used a Boss MT-2 and got a very accurate distortion. the synthesizer solo at (0:51) I 
know, just base it around the melodic solo he does at (1:36) or solo in F Augmented

(0:04 to 0:22) (0:30 to 0:33)
play 2 times clean, then 2 times distorted, then 2 times both
e||-----------------------------------------------------||
b||-----------------------------------------------------||
g||-----------------------------------------------------||
d||----6-----------------------------6------------------||
a||----5--------------4--------------5---------------4--||
D||--0---0h6h7p6p0-0--5--0h6h7p6p0-0----0h6h7p6p0-0--5--||

(0:23 to 0:30) (0:34 to 0:41) (1:29 to 1:36)
listen to how fast Buckethead palm mutes the open D
e||--------------------------||
b||--------------------------||
g||--------------------------||
d||--------------------------||
a||-5------------------5-----||
D||---0-0-6-0-6-0-6-7--------||

(0:42 to 0:47)
very Funnel Weaverish
e||----------------------||
b||----------------------||
g||----------------------||
d||-0-0--4-p-0-h-4--2----||
a||-0-0--4-p-0-h-4--2----||
D||-0-0--4-p-0-h-4--2----||

(0:51 to 1:06)
played on some kind of synth...just use fazer/flange on guitar
e||-----------------||-------------||------------||-------------||
b||-----------------||-------------||------------||-------------||
g||-----------------||-------------||------------||-------------||
d||-----------------||-----------6-||----------6-||------6------||
a||--3---4-------6--||--3---4------||--3---4-----||--3-------4--||
D||-----------------||-------------||------------||-------------||

(1:36 to 2:06)
play 4 times... on the 2nd time Buckethead adds another guitar
e||----------------------------------------------------||
b||----------------------------------------------------||
g||-----17---18------18--17------17--18--20--18--17----||
d||-15-----------16----------15------------------------||
a||----------------------------------------------------||
D||----------------------------------------------------||

synth solo (sorry I didn't transcribe it to guitar)

from (2:06) it gets a bit unleashed, so i think i'll pass...
but repeat the 1st riff again for the outro
comments
We did not receive enough feedback on this tab! Please rate:
print report bad tab
1 2 3 4 5
I want to post or [tab]
guest
You may want to rate the tab now too:
select rating
Please do not post tabs as comments. Select "correction" instead!