Oops, an error
Loading. Please wait.

Pink Eye Tab

version 2
version 2

Whole song

1,885 views 3 this week
1 commentread comment
1 2 3 4 5
please rate
add to favorites
launch autoscroll
font size
0
reset
how to read this tab
guitar tuner
Autoscroll
slow
fast
+/-
esc
set tempo
stop
Help us to improve Ultimate-Guitar.com Take our survey!
×
Author
MMMMMMMMMMMMMMMMMMMMMMMMMMMMMMMMMMMMM
Pink Eye // Albino Slug // Buckethead
WWWWWWWWWWWWWWWWWWWWWWWWWWWWWWWWWWWWW

Tabbed by Ethan Riehl
Music by Buckethead

*This is a tab of my guitar pro version
put in to text in attempt to bring this
song to more players...

MMMMMMMMMMMMMMMMMMMMMMMMMMMMMMMMMMMMMMMMMMMMMMM
M This tab represents the author's own work;  M
W any unauthorized reproduction is prohibited W
WWWWWWWWWWWWWWWWWWWWWWWWWWWWWWWWWWWWWWWWWWWWWWW

*All times are estimates and may vary
*The sig and tempo never change unless noted, this song does go quite a few places so heads up
*I'm sure this is very close to the real deal but feel free to make suggestions

[Sig: 4/4, Tempo: 100]
    (Crunchy, quiet guitar)
E|----------------------------------|
B|----------------------------------|
G|----------------------------------|
D|----------------------------------|
A|--5---------------5---------------|
E|--3---------------3---------------|

                    (Tab expanded for clarity)
E|------------------------------------------------|
B|------------------------------------------------|
G|------------------------------------------------|
D|------------------------------------------------|
A|--5--------------------------4h5p4h5p4h5--------|
E|--3---------------3h4p3h4p3h4-----------3h4p3h4-|

E|----------------------------------|
B|----------------------------------|
G|----------------------------------|
D|----------------------------------|
A|--5---------------5---------------|
E|--3---------------3---------------|

                    (Distortion guitar enters)
E|------------------------------------------------|
B|------------------------------------------------|
G|------------------------------------------------|
D|------------------------------------------------|
A|--5--------------------------4h5p4h5p4h5--------|
E|--3---------------3h4p3h4p3h4-----------3h4p3h4-|

E|----------------------------------|
B|----------------------------------|
G|----------------------------------|
D|----------------------------------|
A|--5---------------5---------------|
E|--3---------------3---------------|

E|------------------------------------------------|
B|------------------------------------------------|
G|------------------------------------------------|
D|------------------------------------------------|
A|--5--------------------------4h5p4h5p4h5--------|
E|--3---------------3h4p3h4p3h4-----------3h4p3h4-|

E|----------------------------------|
B|----------------------------------|
G|----------------------------------|
D|----------------------------------|
A|--5---------------5---------------|
E|--3---------------3---------------|

E|------------------------------------------------|
B|------------------------------------------------|
G|------------------------------------------------|
D|------------------------------------------------|
A|--5--------------------------4h5p4h5p4h5--------|
E|--3---------------3h4p3h4p3h4-----------3h4p3h4-|

( 0:21 )
[Sig: 6/4 Tempo: 180]
E|-----------------------------|--------------------------------|
B|-----------------------------|--------------------------------|
G|-----------------------------|--------------------------------|
D|-----------------------------|--4----6------6/7--6--4------4/-|
A|--3/4-4/3-4\3-4--5----7------|--2----4------4/5--4--2------2/-|
E|--1/2-2\1-2\1-2--3----5------|--------------------------------|

[Sig: 5/8]       [Sig: 6/4]
E|--------------|-----------------------------|
B|--------------|-----------------------------|
G|--------------|-----------------------------|
D|-/6--4--2-----|-----------------------------|
A|-/4--2--0-----|--3/4-4\3-4\3-4--7----4------|
E|--------------|--1/2-2\1-2\1-2--5----2------|

[Sig: 8/4]
E|---------------------------|
B|---------------------------|
G|---------------------------|
D|--6--7---7/9-7-6-6--6---6--|
A|--4--5---5/7-5-4-4--4---4--|
E|---------------------------|

[Sig: 6/4]
E|-----------------------------|--------------------------------|
B|-----------------------------|--------------------------------|
G|-----------------------------|--------------------------------|
D|-----------------------------|--4----6------6/7--6--4------4/-|
A|--3/4-4/3-4\3-4--5----7------|--2----4------4/5--4--2------2/-|
E|--1/2-2\1-2\1-2--3----5------|--------------------------------|

[Sig: 5/8]       [Sig: 6/4]
E|--------------|-----------------------------|
B|--------------|-----------------------------|
G|--------------|-----------------------------|
D|-/6--4--2-----|-----------------------------|
A|-/4--2--0-----|--3/4-4\3-4\3-4--7----4------|
E|--------------|--1/2-2\1-2\1-2--5----2------|

[Sig: 8/4]
E|---------------------------|
B|---------------------------|
G|---------------------------|
D|--6--7---7/9-7-6-6--6------|
A|--4--5---5/7-5-4-4--4---3--|
E|------------------------1--|

( 0:41 )
[Sig: 4/4, Tempo: 100]
    (Play two times)
E|-----|-----|-----|---------------|
B|-----|-----|-----|---------------|
G|-----|-----|-----|---------------|
D|-----|-----|-----|---------------|
A|--4--|--5--|-\3--|--/6--------5--| x 2
E|--2--|--3--|-\1--|--/4--------3--|

( 1:00 )
[Sig: 8/4]
    (Play four times w/ heavy palm mute)
    (Two "-"'s represent an eighth note; one represents a sixteenth)
    P.M.------------------------------------------------------|
E|------------------------------------------------------------|
B|------------------------------------------------------------|
G|------------------------------------------------------------|
D|------------------------------------------------------------|
A|------------------------------------------------------| x 4-|
E|--2--2--X-2--2-2--2--2-2--X-2--2--2-2--2--X-2-2--2--2-------|

( 1:20 )
[Sig: 4/4]
    (Play four times)
                Killswitch----|
E|------------------------------|
B|------------------------------|
G|------------------------------|
D|--------------6--6-6-6-6-6-6--|
A|--5--5--5--5--4--4-4-4-4-4-4--| x 4
E|--3--3--3--3------------------|

( 1:30 )
[Sig: 7/8]
E|------------------------------------------------------------|
B|------------------------------------------------------------|
G|-------------------------------------------17------16b17r16-|
D|----------17------16b17r16---------15-----------------------|
A|--15-----------------------17-------------------------------|
E|------------------------------------------------------------|

[Sig: 4/4]
E|---------------------------------------------------17------16-------|
B|------------------17------16b17r16---------14-----------------------|
G|----------14-----------------------17-------------------------------|
D|--17----------------------------------------------------------------|
A|--------------------------------------------------------------------|
E|--------------------------------------------------------------------|

E|--------------------------------------------------------------------|
B|--------------------------------------------------------------------|
G|---------------------------------------------------17------16b17r16-|
D|------------------17------16b17r16---------15-----------------------|
A|----------15-----------------------17-------------------------------|
E|--17----------------------------------------------------------------|

E|---------------------------------------------------17------16-------|
B|------------------17------16b17r16---------14-----------------------|
G|----------14-----------------------17-------------------------------|
D|--17----------------------------------------------------------------|
A|--------------------------------------------------------------------|
E|--------------------------------------------------------------------|

E|--------------------------------------------------------------------|
B|--------------------------------------------------------------------|
G|---------------------------------------------------17------16b17r16-|
D|------------------17------16b17r16---------15-----------------------|
A|----------15-----------------------17-------------------------------|
E|--17----------------------------------------------------------------|

E|---------------------------------------------------17------16-------|
B|------------------17------16b17r16---------14-----------------------|
G|----------14-----------------------17-------------------------------|
D|--17----------------------------------------------------------------|
A|--------------------------------------------------------------------|
E|--------------------------------------------------------------------|

( 1:45 )
[Sig: 5/4]
    (Play four times)
E|-----------------|
B|-----------------|
G|-----------------|
D|--------------6--|
A|--4--7--6--5--4--|
E|--2--5--4--3-----|

( 1:57 )
[Sig: 4/4]
    (Play the next two bars four times together)
E|----------------------------------|
B|----------------------------------|
G|----------------------------------|
D|----------------------------------|
A|--5---------------5---------------|
E|--3---------------3---------------| ==================\
                                                         > x 4
E|------------------------------------------------| ====/
B|------------------------------------------------|
G|------------------------------------------------|
D|------------------------------------------------|
A|--5--------------------------4h5p4h5p4h5--------|
E|--3---------------3h4p3h4p3h4-----------3h4p3h4-|

( 2:17 )
   (Play two times)
E|-----|-----|-----|---------------|
B|-----|-----|-----|---------------|
G|-----|-----|-----|---------------|
D|-----|-----|-----|---------------|
A|--4--|--5--|-\3--|--/6--------5--| x 2
E|--2--|--3--|-\1--|--/4--------3--|

( 2:36 )
[Sig: 8/4]
    (Play two times w/ heavy palm mute)
    (Two "-"'s represent an eighth note; one represents a sixteenth)
    P.M.------------------------------------------------------|
E|------------------------------------------------------------|
B|------------------------------------------------------------|
G|------------------------------------------------------------|
D|------------------------------------------------------------|
A|------------------------------------------------------| x 2-|
E|--2--2--X-2--2-2--2--2-2--X-2--2--2-2--2--X-2-2--2--2-------|

( 2:46 )
[Sig: 6/4 Tempo: 180]
    (Play the next five bars three times together)
E|-----------------------------|--------------------------------|
B|-----------------------------|--------------------------------|
G|-----------------------------|--------------------------------|
D|-----------------------------|--4----6------6/7--6--4------4/-|
A|--3/4-4/3-4\3-4--5----7------|--2----4------4/5--4--2------2/-|
E|--1/2-2\1-2\1-2--3----5------|--------------------------------| ==/
                                                                   /
[Sig: 5/8]       [Sig: 6/4]                                       /
E|--------------|------------------------------------------------------|                  /
B|--------------|------------------------------------------------------|                 /
G|--------------|-----------------------------| ===============/== x 3-|
D|-/6--4--2-----|------------------------------------------------------|               /
A|-/4--2--0-----|--3/4-4\3-4\3-4--7----4-------------------------------|              /
E|--------------|--1/2-2\1-2\1-2--5----2-------------------------------|             /
                                                           /
[Sig: 8/4]                                                /
E|---------------------------|                           /
B|---------------------------| =========================/
G|---------------------------|
D|--6--7---7/9-7-6-6--6---6--|
A|--4--5---5/7-5-4-4--4---4--|
E|---------------------------|

( 3:15 )
[Sig: 6/4]
E|-----------------------------|--------------------------------|
B|-----------------------------|--------------------------------|
G|-----------------------------|--------------------------------|
D|-----------------------------|--4----6------6/7--6--4------4/-|
A|--3/4-4/3-4\3-4--5----7------|--2----4------4/5--4--2------2/-|
E|--1/2-2\1-2\1-2--3----5------|--------------------------------|

[Sig: 5/8]       [Sig: 6/4]
E|--------------|-----------------------------|
B|--------------|-----------------------------|
G|--------------|-----------------------------|
D|-/6--4--2-----|-----------------------------|
A|-/4--2--0-----|--3/4-4\3-4\3-4--7----4------|
E|--------------|--1/2-2\1-2\1-2--5----2------|

[Sig: 8/4]                    [Sig: 1/4]
E|---------------------------|-----|
B|---------------------------|-----|
G|---------------------------|-----|
D|--6--7---7/9-7-6-6--6------|-----|
A|--4--5---5/7-5-4-4--4---3--|--4--|
E|------------------------1--|--2--|

Legend

Sig
Indicates a change in time signiature

Tempo
Indicates a change in tempo

|
Indicates the front and back of a bar

h
Hammer-On; play the note  before it then press the note after it

p
Pull-Off; play the note before it then release to the note after it

/
Slide from the note before it up to the note after it. If no note(s)
exist, improvise

\
Slide from the note before it down to the noteafter it. If no note(s)
exist, improvise

P.M.
Palm-Mute; mute the notes being played with the palm of your
strumming hand

X
Dead Note; lightly rest your fretting hand on the string and play
the string

Killswitch
Pressing a momentary switch to ground your guitar, "killing" the
sound. Use to make a studdering effect

b
Bend; play the note before it and bend the string to produce the
note after it

r
Release; follows a bend, unbend the string to the note after it
Suggest correction
Give kudos to tab author, rate the tab!
1 2 3 4 5
comments
print report bad tab
1 comment total.
0 reply
Markus93 151 wrote on July 30 2009, 09:02 pm

the killswicth part is wrong. the fisrt one is F and the second one is B.

guest
You may want to rate the tab now too:
select rating
Please do not post tabs as comments. Select "correction" instead!