Oops, an error
Loading. Please wait.

Pirates Life For Me Tab

version 1
version 1

Whole song

Interactive

13,919 views 42 this week
no commentswrite comment
1 2 3 4 5
excellent!
x 2
add to favorites
launch autoscroll
font size
0
reset
how to read this tab
guitar tuner
Tab Pro tools
  • play this tab
  • loop segment
  • change instrument
  • show fretboard
  • metronome
Autoscroll
slow
fast
+/-
esc
set tempo
stop
Contributor
Difficulty
intermediate
                                Pirate's Life For Me                                 


                                                                           Buckethead
Buckethead - A Pirates Life For Me
Tabbed by Unknown



      Q    E  Q    E     Q    E  Q     E     Q    E  Q    E     Q    E  E  Q     
E||-----------7-------|--9-------7--------|------------------|------------------|
B||---9---------------|---------------10--|-------9--7-------|-------9----------|
G||*--9---------------|--9----------------|--9----9-------8--|-------9----------|
D||*--9---------------|--7----------------|-------9----------|-------9----------|
A||---7---------------|-------------------|--7---------------|--7----7----------|
E||-------------------|-------------------|----------7-------|------------------|


  Q    E  E  E  E     Q    E  E  E  E     Q    E  Q    E     Q    E  Q    E   
--4----4--4--4--4--|--4----4--4--4--4--|--9---------------|--4----4----------|
--5----5--5--5--5--|--4----4--4--4--4--|-------9--5----7--|--4----4----------|
--6----6--6--6--6--|--5----5--5--5--5--|--6----6----------|--5----5----------|
----------6--------|----------4--------|------------------|--4----4----------|
--4----------------|-------------------|----------4-------|-------6----------|
-------------------|--4----------------|------------------|-------4----------|


  E  E  E  E  E  E     E  E  E  E  E  E     Q    E  E  E  E     Q     H           
--5--5--5--2--2--2--|--------------------|--2----2--2--4--6--|--7-----7---------||
--7--7--7--4--4--4--|--9--9--9--5--5--5--|--2----------------|--7----10---------||
--6--------4--------|--9--9--9--6--6--6--|--3----------------|--8-----8--------*||
--4-----------------|--9--9--9--6--6--6--|--4----------------|--9-----7--------*||
-----------2--------|--7--------4--------|--4----------------|--9-----9---------||
--------------------|--------------------|--2----------------|--7-----7---------||


  Q    E  E  E  E     Q    E  E  E  E     Q    E  Q    E     Q    Q    Q     
--4----L--4--L--L--|--4----L--4--L--L--|------------------|--4----4---------|
--5----L--5--L--L--|--4----L--4--L--L--|--5----5--5----7--|--4----4---------|
--6----L--6--L--L--|--5----L--5--L--L--|------------------|--5----5---------|
----------6--------|----------4--------|------------------|--4----4---------|
--4----------------|-------------------|--4----4--4-------|--6--------------|
-------------------|--4----------------|------------------|--4--------------|


  Q    E  Q    E      Q     E  Q    E     Q    E  E  E  E     Q     H         
------------------|--------------------|--2----2--2--4--6--|--7-----7--------|
------------------|--------------------|--2----------------|--7----10--------|
--9----L----------|--11-----L----------|--3----------------|--8-----8--------|
--7----L--7----L--|---9-----L--9----L--|--4----------------|--9-----7--------|
----------9----L--|------------7----L--|--4----------------|--9-----9--------|
------------------|--------------------|--2----------------|--7-----7--------|


  Q    E  Q    E     Q    E  Q     E     Q    E  Q    E     Q    H         
----------7-------|--9-------7--------|------------------|----------------|
--9---------------|---------------10--|-------9--7-------|-------9--------|
--9---------------|--9----------------|--9----9-------8--|-------9--------|
--9---------------|--7----------------|-------9----------|--9----9--------|
--7---------------|-------------------|--7---------------|--7----7--------|
------------------|-------------------|----------7-------|----------------|


  H        Q       H        Q       H        Q       H        Q       H        Q     
----------------|----------------|----------------|----------------|----------------|
--L--------L----|--L--------L----|--L--------L----|--L--------L----|--L--------L----|
--L--------L----|--L--------L----|--L--------L----|--L--------L----|--L--------L----|
--L--------L----|--L--------L----|--L--------L----|--L--------L----|--L--------L----|
--L--------L----|--L--------L----|--L--------L----|--L--------L----|--L--------L----|
----------------|----------------|----------------|----------------|----------------|


  H        Q       H        Q       H        Q       H        Q       H        Q     
----------------|----------------|----------------|----------------|----------------|
----------------|----------------|----------------|----------------|----------------|
----------------|----------------|----------------|----------------|----------------|
----------------|----------------|----------------|----------------|----------------|
----------------|----------------|----------------|----------------|----------------|
----------------|----------------|----------------|----------------|----------------|


  H        Q      
----------------||
----------------||
----------------||
----------------||
----------------||
----------------||




Duration Legend
---------------
W - whole
H - half
Q - quarter
E - 8th
S - 16th
T - 32nd
X - 64th
. - note dotted
|-n-|  - n-tuplets


Tablature Legend
----------------
L - tied note
x - dead note
g - grace note
(n) - ghost note
> - accentuded note
NH - natural harmonic
AH - artificial harmonic
TH - tapped harmonic
SH - semi harmonic
PH - pitch harmonic
h - hammer on
p - pull off
b - bend
br - bendRelease
pb - preBend
pbr - preBendRelease
brb - bendReleaseBend
\n/ - tremolo bar dip
\n - tremolo bar dive
-/n - tremolo bar Release up
/n\ - tremolo bar inverted dip
/n - tremolo bar return
-\n - tremolo bar Release down
S - shift slide
s - legato slide
/ -  slide into from below or out of upwards
\ -  slide into from above or out of downwards
~ - vibrato
W - wide vibrato
tr - trill
TP - tremolo picking
T - tapping
S - slap
P - pop
< - fade in
^ - brush up
v - brush down
comments
We did not receive enough feedback on this tab! Please rate:
print report bad tab
1 2 3 4 5
I want to post or [tab]
guest
You may want to rate the tab now too:
select rating
Please do not post tabs as comments. Select "correction" instead!