Oops, an error
Loading. Please wait.

Planeta Tab

5,924 views 3 this week
3 commentsread comments
1 2 3 4 5
accurate
x 4
add to favorites
launch autoscroll
font size
0
reset
how to read this tab
guitar tuner
Autoscroll
slow
fast
+/-
esc
set tempo
stop
Help us to improve Ultimate-Guitar.com Take our survey!
×
Difficulty
intermediate
Buckethead - Planeta

Tabbed by skaterzero807



Just in case you want to know, the background guitar is either doing 
Am, E chord progression or an 
Am, G, F, E progression. 


Standard Tuning (EADGBe)

(0:00)
|----10-12-12-10-12-13-12--10-12--15-15-13-12-10--12-13-12-12-10-12--10-----10----------10-12----|
|-13---------------------------------------------------------------------13----13-13-13-------12-|
|------------------------------------------------------------------------------------------------|
|------------------------------------------------------------------------------------------------|
|------------------------------------------------------------------------------------------------|
|------------------------------------------------------------------------------------------------|


|-------10-------------|
|-12h13----13-12-10----|
|----------------------|
|----------------------|
|----------------------|
|----------------------|

(0:32)
|-10--10h12h13-12--------10---------------------------------------------------|
|-----------------10-10-----13-12-12b13-10----------------------9-12b13-10----|
|------------------------------------------9--12-12b14r12-10-9----------------|
|-----------------------------------------------------------------------------|
|-----------------------------------------------------------------------------|
|-----------------------------------------------------------------------------|

(0:56)
|----10-12-12-10-12-13-12--10-12--15-15-13-12-10--12-13-12-12-10-12--10-----10----------10-12----|
|-13---------------------------------------------------------------------13----13-13-13-------12-|
|------------------------------------------------------------------------------------------------|
|------------------------------------------------------------------------------------------------|
|------------------------------------------------------------------------------------------------|
|------------------------------------------------------------------------------------------------|


|-------10--------------------------------|
|-12h13----13-12-10-9---------------------|
|---------------------10-9----------------|
|--------------------------12S10-12S14----|
|-----------------------------------------|
|-----------------------------------------|

(1:17)
|---------------------------------------------------------|
|--------------------------------10-----------------------|
|-5---5-9--------7---9--10---9------10-9-10S12-9----------|
|---7-----10-----9--10--12--10-------------------10-------|
|------------12-------------------------------------12----|
|---------------------------------------------------------|


|----------------------------------12-12----15-15-13S12-12--10----------------|
|----------------------12b13r12-10-------10--------------------13-12--9-10----|
|-10-10-10-10h12p10S9---------------------------------------------------------|
|-----------------------------------------------------------------------------|
|-----------------------------------------------------------------------------|
|-----------------------------------------------------------------------------|

(1:47)
|----------------------------10-------------|
|---------------------13--13----13-12--9----|
|-9--7S5S7S9--12-9-12-----------------------|
|-------------------------------------------|
|-------------------------------------------|
|-------------------------------------------|

(1:57)
|------------------------------15--17-15-13-12b13r12------19h20p19----20h22p20----19h20p19-15-12----|
|-15b17==17-17r15-13S12--13p12-------------------------17----------17----------17-------------------|
|---------------------------------------------------------------------------------------------------|
|---------------------------------------------------------------------------------------------------|
|---------------------------------------------------------------------------------------------------|
|---------------------------------------------------------------------------------------------------|

(2:13)  
|-12--------------13-12-----------------------------------------------------------------13-12----|
|----15-13-12------------15p13-15b17--15b17r15p13-15b17r15--13----13-15-15b17-13-----------------|
|--------------13----------------------------------------------14----------------14--13----------|
|------------------------------------------------------------------------------------------------|
|------------------------------------------------------------------------------------------------|
|------------------------------------------------------------------------------------------------|

(2:30)
|-16b17r16-13-12h13p12--12-12-12-----------------12-12-12----12-13-12h13p12----|
|--------------------------------15-13-12h13h15-----------15-------------------|
|------------------------------------------------------------------------------|
|------------------------------------------------------------------------------|
|------------------------------------------------------------------------------|
|------------------------------------------------------------------------------|

(2:42)
|-----------------------------------------------------------------12h13p12----|
|----12b13r12-----------------------------------------------------------------|
|-14----------14-14--14p13-13--13h14--------------------------13--------------|
|------------------------------------15p14----------------14------------------|
|------------------------------------------15p14-12h14h15---------------------|
|-----------------------------------------------------------------------------|

(2:53)
|-12---------------------------5----|
|----15-13-12------------------5----|
|-------------14-13------------5----|
|---------------------------9-------|
|------------------------7----------|
|---------------------5-------------|


Tablature Legend
----------------
 h   - hammer-on
 p   - pull-off
 b   - bend
 pb  - pre-bend
 r   - bend release (if no number after the r, then release immediately)
 /\  - slide into or out of (from/to "nowhere")
 s   - legato slide
 S   - shift slide
 - natural harmonic
[n]  - artificial harmonic
n(n) - tapped harmonic
 ~   - vibrato
 tr  - trill
 T   - tap
 TP  - trem. picking
 PM  - palm muting
\n/  - tremolo bar dip; n = amount to dip
 \n  - tremolo bar down
 n/  - tremolo bar up
/n\  - tremolo bar inverted dip
 =   - hold bend; also acts as connecting device for hammers/pulls
 <> - volume swell (louder/softer)
 x   - on rhythm slash represents muted slash
 o   - on rhythm slash represents single note slash


** Generated using Power Tab Editor by Brad Larsen
Suggest correction
comments
print report bad tab
3 comments total.
0 reply
WhaTever4 188 wrote on September 5 2007, 06:09 pm

What alblum is this on?

0 reply
Seventeen 10 wrote on January 28 2008, 05:39 pm

Blue Sueños

0 reply
minib00m 10 wrote on August 2 2010, 04:58 am

you missed some bendings, but it sounds still great :-) good job

guest
You may want to rate the tab now too:
select rating
Wanna post a correction for this tab? Suggest correction