Oops, an error
Loading. Please wait.

Plastination Station Tab

version 1
version 1

Whole song

Interactive

5,444 views 3 this week
7 commentsread comments
1 2 3 4 5
excellent!
x 9
add to favorites
launch autoscroll
font size
0
reset
how to read this tab
guitar tuner
Tab Pro tools
  • play this tab
  • loop segment
  • change instrument
  • show fretboard
  • metronome
×
Best way to learn
"Plastination Station"
Autoscroll
slow
fast
+/-
esc
set tempo
stop
Contributor
I'm just updating my previous tab because it is missing the solo!
I've spent a lot of time on this so I hope you enjoy! Please Rate and comment! 
PS if this is rejected because of some tone deaf retards I will never submit another
tab to UG! This tab is near flawless!     

Tuning Is a Half Step Down
Plastination Station
Inbred Mountain
Tabbed By DANIEL STRAIN
Intro Low Volume
Eb-------------------------------------------------]
Bb-------------------------------------------------]
Gb--------------4--2-1-----------------------------]
Db------------2~-------2~-------------2-2-2-1~-----]
Ab--------2-4--4-4----------------2-4--0-0-0-------]
Eb--0-2-4-------------------0-2-4------------------]
Turn Up Volume
Eb-------------------------------------------------]
Bb-------------------------------------------------]
Gb--------------4--2-1-----------------------------]
Db------------2--------2--------------2-2-2-1------]X2
Ab--------2-4--4-4----------------2-4--0-0-0-------]
Eb--0-2-4-------------------0-2-4------------------]

I'm not going to tab this whole part he plays it like this
but sometime not hitting a note as many times mixes it up just a bit.
Eb-------------------------------------------------]
Bb-------------------------------------------------]
Gb-----------------4-4--4-2-2-1-1------------------]
Db---------------2----------------2----------------]u can count
Ab---4-4-4-2-2-4-----------------------------------]
Eb-------------------------------------------------]

First Solo thing
OK here are the cords he plays in the background
I don't know the rhythm to well but you can figure it
out!!
Eb------0----0-----0-------------------------------]
Bb------5----4-----0-------------------------------]
Gb------4----4-----4-------------------------------]
Db------2----2-----2-------------------------------]
Ab------4----4-----4-------------------------------]
Eb------0----0-----0-------------------------------]

Eb-------------------------------------------------------------]
Bb-------------17s16s14----16s14s12----12s14s12----------------]
Gb---------------------------------------------14-13-14--------]
Db----------s14---------13-----------14-----------------14-----]
Ab-------------------------------------------------------------]
Eb-------------------------------------------------------------]

Eb-------------------------------------16--16-----------------]
Bb-------------17s16s14----16s14s12------14--17~--------------]
Gb------------------------------------------------------------]
Db----------s14---------13------------------------------------]
Ab------------------------------------------------------------]
Eb------------------------------------------------------------]

Eb-------------------------------------------------------------]
Bb-------------17s16s14----16s14s12----12s14s12----------------]
Gb---------------------------------------------14-13-14--------]
Db----------s14---------13-----------14-----------------14-----]
Ab-------------------------------------------------------------]
Eb-------------------------------------------------------------]

Eb------------------------------------------------------------]
Bb-------------17s16s14----16s14s12---------------------------]
Gb------------------------------------14-13~14----------------]
Db----------s14---------13------------14-14-14~---14-13-------]
Ab------------------------------------------------------16----]
Eb------------------------------------------------------------]

Eb-------------------------------------------------]
Bb-------------------------------------------------]
Gb-----------------4-4--4-2-2-1-1------------------]
Db---------------2----------------2----------------]X3
Ab---4-4-4-2-2-4-----------------------------------]
Eb-------------------------------------------------]

Backing rhythm for solo
Eb----------------------------------------------]
Bb----------------------------------------------]
Gb--6--6--6--6--6--6--6--6--6--6--9--9--9~------]
Db--6--6--6--6--6--6--6--6--6--6--9--9--9~------]
Ab--4--4--2--2--4--4--2--2--4--4--7--7--7~------]
Eb----------------------------------------------]

The solo 
*Sorry 2.45 to 2.50 is too inaudible for me to understand!
PLEASE PLAY SOLO ALONE WITH THE SONG AS FOR TIMING PURPOSES! 
Eb------------------*----x-x-x-x-------------------------------------]
Bb--13-11-9-11s13s9------x-x-x-x-------------------------------------]
Gb-----------------------x-x-x-x---9~~---------------13~~11----------]
Db-----------------------x-x-x-x------11p9---9-11-14--------14p11h14-]
Ab-----------------------x-x-x-x----------11-------------------------]
Eb-----------------------x-x-x-x-------------------------------------]

*large bend down or up your choice
Eb--------------16~~~~--16p14p12------------------------------------------]
Bb-------14h17------------------14~~~~-12-12-12-12-14~~------12-----------]
Gb-13h16------------------------------------------------11*------11-9-11*-]
Db------------------------------------------------------------------------]
Ab------------------------------------------------------------------------]
Eb------------------------------------------------------------------------]

Eb----------------------------16~~-16-14~~---------------------]
Bb----------------------------------------16~~-----------------]
Gb-9----9h11p9h11p9----9---------------------------------------]
Db---11-------------11---11--------------------13-11-9-8-9-9---]
Ab--------------------------------------------------------9----]
Eb-------------------------------------------------------------]

3.12
Eb-------------------------------------------------]
Bb-------------------------------------------------]
Gb--------------4--2-1-----------------------------]
Db------------2--------2--------------2-2-2-1------]
Ab--------2-4--4-4----------------2-4--0-0-0-------]
Eb--0-2-4-------------------0-2-4------------------]

Pick slide and very fast hammer on pull offs!!!
Play with it for counting purposes!
Eb-------------------------------------------------------]
Bb-------------------------------------------------------]
Gb-------------------------------------------------------]
Db-----/X---9h11p9h11p9h11p9h11p9h11p9h11p9h11p9h11------]
Ab---/X--------------------------------------------------]
Eb-/X----------------------------------------------------]

Eb----------------------------------------------------------------]
Bb----------------------------------------------------------------]
Gb-------------------------------------------------------13~~~----]
Db--------/X---9h11p9h11p9h11p9h11p9h11p9h11p9h11p9h11------------]
Ab------/X--------------------------------------------------------]
Eb-12-/X----------------------------------------------------------]

Eb---------------------------------------------------------]
Bb---------------------------------------------------------]
Gb---------------------------------------------------------]
Db-------/X---9h11p9h11p9h11p9h11p9h11p9h11p9h11p9h11------]
Ab-----/X--------------------------------------------------]
Eb12-/X----------------------------------------------------]

This Bar is close but I know I messed up! still very close :P   
Eb---------------------------------------------------------------------]
Bb---------------14~~~14s12-12-----------------14----------------------]
Gb-13-16*hold-----------------13-13s16-16s14-14--13s16-16-14-13-14-13--]
Db---------------------------------------------------------------------]
Ab---------------------------------------------------------------------]
Eb---------------------------------------------------------------------]

Eb----------16------------------------------------------------]
Bb-16*---14----14~~14-12-12-14-14--14~14~12-------------------]
Gb----------------------------------------------------9--9----]
Db-----------------------------------------14~~----/11-11-----]
Ab------------------------------------------------------------]
Eb------------------------------------------------------------]

Eb-------------------------------------------------------]
Bb-------------------------------------------------------]
Gb-------------------------------------------------------]
Db-----/X---9h11p9h11p9h11p9h11p9h11p9h11p9h11p9h11------]
Ab---/X--------------------------------------------------]
Eb-/X----------------------------------------------------]

Eb----------------------------------------------------------------]
Bb----------------------------------------------------------------]
Gb-------------------------------------------------------13~~~----]
Db--------/X---9h11p9h11p9h11p9h11p9h11p9h11p9h11p9h11------------]
Ab------/X--------------------------------------------------------]
Eb----/X----------------------------------------------------------]

Eb---------------------------12-----]
Bb--14-12-14b14b14b14b14b14*---14---]
Gb----------------------------------]
Db----------------------------------]
Ab----------------------------------]
Eb----------------------------------]

4.00 
Eb---------------------------------------------------]
Bb--------14-14-12-12--------------------------------]
Gb--13-13------------11-11-13-13---------------------]x2
Db------------------------------14-14-13-13-14-14----]
Ab---------------------------------------------------]
Eb---------------------------------------------------]

Eb-16-16---------------------------------------------]
Bb--------14-14-12-12--------------------------------]
Gb-------------------11-11-13-13---------------------]x2
Db------------------------------14-14-13-13-14-14~~~~]
Ab---------------------------------------------------]
Eb---------------------------------------------------]

Eb-------------------------------------------------]
Bb-------------------------------------------------]
Gb-----------------4-4--4-2-2-1-1------------------]
Db---------------2----------------2----------------]
Ab---4-4-4-2-2-4-----------------------------------]
Eb-------------------------------------------------]

Eb-------------------------------------------------------------]
Bb-------------17s16s14----16s14s12----12s14s12----------------]
Gb---------------------------------------------14-13-14--------]
Db----------s14---------13-----------14-----------------14-----]
Ab-------------------------------------------------------------]
Eb-------------------------------------------------------------]

Eb-------------------------------------16--16-----------------]
Bb-------------17s16s14----16s14s12------14--17~--------------]
Gb------------------------------------------------------------]
Db----------s14---------13------------------------------------]
Ab------------------------------------------------------------]
Eb------------------------------------------------------------]

Eb-------------------------------------------------------------]
Bb-------------17s16s14----16s14s12----12s14s12----------------]
Gb---------------------------------------------14-13-14--------]
Db----------s14---------13-----------14-----------------14-----]
Ab-------------------------------------------------------------]
Eb-------------------------------------------------------------]

Eb------------------------------------------------------------]
Bb-------------17s16s14----16s14s12---------------------------]
Gb------------------------------------14-13~------------------]
Db----------s14---------13------------14-14-------14-13-------]
Ab------------------------------------------------------16----]
Eb------------------------------------------------------------]

Eb-------------------------------------------------------------]
Bb-------------17s16s14----16s14s12----12s14s12----------------]
Gb---------------------------------------------14-13-14--------]
Db----------s14---------13-----------14-----------------14-----]
Ab-------------------------------------------------------------]
Eb-------------------------------------------------------------]

Eb-------------------------------------16--16-----------------]
Bb-------------17s16s14----16s14s12------14--17~--------------]
Gb------------------------------------------------------------]
Db----------s14---------13------------------------------------]
Ab------------------------------------------------------------]
Eb------------------------------------------------------------]

Eb-------------------------------------------------------------]
Bb-------------17s16s14----16s14s12----12s14s12----------------]
Gb---------------------------------------------14-13-14--------]
Db----------s14---------13-----------14-----------------14-----]
Ab-------------------------------------------------------------]
Eb-------------------------------------------------------------]

Eb------------------------------------------------------------]
Bb-------------17s16s14----16s14s12---------------------------]
Gb------------------------------------14-13~------------------]
Db----------s14---------13------------14-14-------14-13-------]
Ab------------------------------------------------------16----]
Eb------------------------------------------------------------]
Yes I'm finished! Please tell me if you like and rate this didn't get made over night! 
comments
print report bad tab
7 comments total. Showing first comments.
0 reply
WhaTever4 wrote on September 5 2007, 03:19 pm

THE Last part I tabbed got cut off there it is
Eb--Pick srape then fast hammer pull---
Bb-----------------------------------
Gb-

0 reply
WhaTever4 wrote on September 5 2007, 03:20 pm

oh well email me all send it to u

0 reply
hom-sha-bom wrote on January 17 2008, 03:23 pm

dude great tab but it would have been better if you posted the solo too, so 4*s

I want to post or [tab]
guest
You may want to rate the tab now too:
select rating
Please do not post tabs as comments. Select "correction" instead!