Oops, an error
Loading. Please wait.

Population Override Tab

2,864 views 1 this week
no commentswrite comment
1 2 3 4 5
excellent!
x 5
add to favorites
launch autoscroll
font size
0
reset
how to read this tab
guitar tuner
Tab Pro tools
  • play this tab
  • loop segment
  • change instrument
  • show fretboard
  • metronome
×
Best way to learn
"Population Override"
Autoscroll
slow
fast
+/-
esc
set tempo
stop
I cant find any tabs for any songs on this album, so here we go!
There are a couple parts im not totaly sure on, but I'll do my best.

x-scratch strings
h-hammer on
/\-slide up or down

Into:The scratches aint perfect, but this is how I play it.
e)-----------------------------------------------------------|
b)-----------------------------------------------------------|
g)-----------------------------------------------------------|
d)-----x-10-x-8-8---------x-10-x-8-8-------------------------|
a)-----x----x-------------x----x------10-6~~~~---------------|
E)-8-8-x----x---------8-8-x----x-----------------------------|

repeat this for a while
Im really unsure about this next part.It sounds really improvised though,
so just jam on it. Again, the scratches are kinda' inacurate, buy you get the idea.

0:34
e)--------------------------------------------8-8-8--x-x-13-13/-x-15-15--|
b)-------------------------------------x-x-x--8-8-8--x-x-13-13/-x-15-15--|
g)---------x-x-x-------x-x--8h10-8-----x-x-x--8-8-8--x-x-13-13/-x-15-15--|
d)---------x-x-x--8-10-x-x---------10--x-x-x---------x-x-----------------|
a)---------x-x-x-------x-x-------------x-x-x-----------------------------|
E)-8~~~----------------x-x-----------------------------------------------|

Just repeat this part with the occasional variation.
0:58
e)------------------|
b)------------------|
g)------------------|
d)------------------|
a)-10-10-10-10------|     play this like...maybe 4 times?
E)-8--8--8--8-------|
  Pm----------------|

1:14
e)-------------------------|
b)-------------------------|
g)-------------------------|   play this 5 times, the 5th time it sounds like
d)-------------------------|   its harmonizeed an octave.
a)-----6-8-6-----6~~~8~~~~-|
E)-8~~~------8~~~----------|

1:35
e)----------------------------------------|
b)------------------------------8---------|
g)------8-12-8------8-12-8------7---------|
d)-10~~~-------10~~~-------10~~~----10~~~-|
a)----------------------------------------|
E)----------------------------------------|

e)--------------------------------------------|
b)------------------------------8-------------|
g)------8-12-8------8-12-8------7/8\7---------|
d)-10~~~-------10~~~-------10~~~--------10~~~-|
a)--------------------------------------------|
E)--------------------------------------------|
1:52
e)---------------------------------------|
b)------8-11-8-----8-11-8-----8-11-8-----|
g)--8~~~-------8~~~-------8~~~-----------|  Arg! More repeating!
d)---------------------------------------|
a)---------------------------------------|
E)---------------------------------------|

e)------11-15-11-------------------------|
b)-13~~~---------13~~--------------------|
g)---------------------------------------|
d)---------------------------------------|
a)---------------------------------------|
E)---------------------------------------|

There's a little jam in here I dont know, but it goes back to this:

e)--------------------------------------------8-8-8--x-x-13-13/-x-15-15--|
b)-------------------------------------x-x-x--8-8-8--x-x-13-13/-x-15-15--|
g)---------x-x-x-------x-x--8h10-8-----x-x-x--8-8-8--x-x-13-13/-x-15-15--|
d)---------x-x-x--8-10-x-x---------10--x-x-x---------x-x-----------------|
a)---------x-x-x-------x-x-------------x-x-x-----------------------------|
E)-8~~~----------------x-x-----------------------------------------------|
All right thats all I got , more tabs comin' soon!
comments
print report bad tab
I want to post or [tab]
guest
You may want to rate the tab now too:
select rating
Please do not post tabs as comments. Select "correction" instead!