Oops, an error
Loading. Please wait.

Post Office Buddy Bass Tab

version 1
version 1

Whole song

Interactive

283 views 1 this week
no commentswrite comment
1 2 3 4 5
please rate
add to favorites
launch autoscroll
font size
0
reset
guitar tuner
Autoscroll
slow
fast
+/-
esc
set tempo
stop
Help us to improve Ultimate-Guitar.com Take our survey!
×
Author
Difficulty
novice
Song: Post Office Buddy
Artist: Buckethead
Album: Giant Robot
                    

            
              G|-----------------------------------------|   
              D|-----------------------------------------|    
              A|-----------------------------------------|    
              E|--0--1-0-4----00--00--1-0-4--------------| x1  
                                                               
              G|-----------------------------------------|     
              D|-----------------------------------------|    
              A|-----------------------------------------|     
              E|--0--1-0-4----00--00--1-0----------------| x1 


              G|-----------------------------------------|   
              D|-----------------------------------------|    
              A|-----------------------------------------|    
              E|--0--1-0-4----00--00--1-0-4--------------| x1  
                                                               
              G|-----------------------------------------|     
              D|-----------------------------------------|    
              A|-----------------------------------------|     
              E|--0--1-0-4----00--00--1-0----------------| x1 


              G|-----------------------------------------|   
              D|-----------------------------------------|    
              A|-----------------------------------------|    
              E|--0--1-0-4----00--00--1-0-4--------------| x1  
                                                               
              G|-----------------------------------------|     
              D|-----------------------------------------|    
              A|-----------------------------------------|     
              E|--0--1-0-4----00--00--1-0----------------| x1 


              G|-----------------------------------------|   
              D|-----------------------------------------|    
              A|-----------------------------------------|    
              E|--0--1-0-4----00--00--1-0-4--------------| x1  
                                                               
              G|-----------------------------------------|     
              D|-----------------------------------------|    
              A|-----------------------------------------|     
              E|--0--1-0-4----00--00--1-0----------------| x1 
     
 
                      

                              (Second phone call)





               G|----------------------------------|
               D|----------------------------------|
               A|----------------------------------|
               E|--0-1-4-40-1-4-40-1-4444-0-1-4----| x4


               G|------------------|
               D|------------------|
               A|--1-------4-------|
               E|------------------| x2
                
               Let the notes ring here


               G|----------------------------------|
               D|----------------------------------|
               A|----------------------------------|
               E|--0-1-4-40-1-4-40-1-4444-0-1-4----| x4

               G|------------------|
               D|------------------|
               A|--1-------4-------|
               E|------------------| x2


               G|----------------------------------|
               D|----------------------------------|
               A|----------------------------------|
               E|--0-1-4-40-1-4-40-1-4444-0-1-4----| x4


               G|------------------|
               D|------------------|
               A|--1-------4-------|
               E|------------------| x2

                               (Third Phone call)

               G|---------------|
               D|---------------|
               A|---------------|
               E|--2-2----------| x8


               G|------------------|
               D|------------------|
               A|-33333322222222---|
               E|------------------| x4
              
               G|---------------|
               D|---------------|
               A|---------------|
               E|--2-2----------| x8


               G|------------------|
               D|------------------|
               A|-33333322222222---|
               E|------------------| x4

               G|---------------|
               D|---------------|
               A|---------------|
               E|--2-2----------| x8


               G|------------------|
               D|------------------|
               A|-33333322222222---|
               E|------------------| x4
Suggest correction
Give kudos to tab author, rate the tab!
1 2 3 4 5
comments
print report bad tab
guest
You may want to rate the tab now too:
select rating
Please do not post tabs as comments. Select "correction" instead!