Oops, an error
Loading. Please wait.

Post Office Buddy Tab

version 1
version 1

Whole song

Interactive

2,803 views 6 this week
1 commentread comment
1 2 3 4 5
2 more votes to show rating
add to favorites
launch autoscroll
font size
0
reset
how to read this tab
guitar tuner
Autoscroll
slow
fast
+/-
esc
set tempo
stop
Help us to improve Ultimate-Guitar.com Take our survey!
×
Post Office Buddy by Buckethead 
from Giant Robot 

tabbed by Limpy Hodzic 

------------------------------------------------------------ 
------------------------------------------------------------ 
------------------------------------------------------------ 
------------------------------------------------------------ 
-2--3-----6---2-2-2--3----6----2-3-----6--2-2-2-3--2-------- 
-0--1--0--4---0-0-0--1-0--4----0-1--0--4--0-0-0-1--0-------- 

then this weird chord comes 

-0--------------------- 
---1------------------- 
-----1----------------- 
-------0--------------- 
----------------------- 
----------------------- 







Suggest correction
Give kudos to tab author, rate the tab!
1 2 3 4 5
comments
print report bad tab
1 comment total.
0 reply
guitaristguy043 36 Sep 29, 2007 02:49 PM

when buchethead dose that weiard chord its more like
|----3-----------|
|-----4----------|
|------5---------|
|-------6--------|
you can see him play it like that on some videos on youtube

guest
You may want to rate the tab now too:
select rating
Wanna post a correction for this tab? Suggest correction