Oops, an error
Loading. Please wait.

Post Office Buddy Tab

version 2
version 2

Whole song

Interactive

4,384 views 1 this week
1 commentread comment
1 2 3 4 5
2 more votes to show rating
add to favorites
launch autoscroll
font size
0
reset
how to read this tab
guitar tuner
Autoscroll
slow
fast
+/-
esc
set tempo
stop
Help us to improve Ultimate-Guitar.com Take our survey!
×
Author
Post Office Buddy
Giant Robot Album
Tab by Eric Wilder

-----------------------------------------------------0--------|
-------------------------------------------------------1------|
---------------------------------------------------------1----|
-2-3-2-6---2-2-2-2-3-2-6---2-3-2-6---2-2-2-2-3-2-----------2--|  (lick 1)
-2-3-2-6---2-2-2-2-3-2-6---2-3-2-6---2-2-2-2-3-2--------------|
-0-1-0-4---0-0-0-0-1-0-4---0-1-0-4---0-0-0-0-1-0--------------|

---------------------------------------|
---------------------------------------|
---------------------------------------|  (1st part of lick 2)
-2-2-6/-2-2-6/-2-2-6-6-6-6-2-2-6-------|
-2-2-6/-2-2-6/-2-2-6-6-6-6-2-2-6-------|
-0-0-4/-0-0-4/-0-0-4-4-4-4-0-0-4/------|


--------------------------------------------------------------|
--------------------------------------------------------------|
-----------7-----------7-----------------10------------10-----|
-------------8-----------8-----------------11------------11---| (2nd part of
--------9------9--9--------9---------12------12----12------12-|  lick 2)
------10-10-----10-10--------------13--13--------13--13-------|

-----------------------------------------------|
-----------------------------------------------|
-----------------------------------------------|
-4-4--x--x--x--x-x-x---------------------------|
-4-4--x--x--x--x-x-x--3h43h43h4----------------|  (1st part of lick 3)
-2-2--x--x--x--x-x-x---------------------------|

---------------------------------|
---------------------------------|
---------------------------------|
---------------------------------|
-7p37p37p3-6p26p26p26p26p2-------|  Palm Mute  (2nd part of lick 3)
---------------------------------|
Suggest correction
Give kudos to tab author, rate the tab!
1 2 3 4 5
comments
print report bad tab
1 comment total.
+1 reply
delany 10 Apr 06, 2008 11:25 PM

..

guest
You may want to rate the tab now too:
select rating
Wanna post a correction for this tab? Suggest correction