Oops, an error
Loading. Please wait.

Post Office Buddy Tab

version 3
version 3

Whole song

Interactive

966 views 1 this week
3 commentsread comments
1 2 3 4 5
accurate
x 8
add to favorites
launch autoscroll
font size
0
reset
how to read this tab
guitar tuner
Autoscroll
slow
fast
+/-
esc
set tempo
stop
Help us to improve Ultimate-Guitar.com Take our survey!
×
Difficulty
novice
Buckethead - Post Office Buddy
Tab by: Mutanth (sonic.titanix2@gmail.com)

Part 1 (repeat 4 times)

e|-----------------------------------------------------------0-------|
B|-------------------------------------------------------------4-----|
G|---------------------------------------------------------------4---|
D|-2-3-3-5-x-x--2-2-2-3-3-5-x-x-x--2-3-3-5-x-x--2-2-2-2-3-3--------5-|
A|-2-3-3-5-x-x--2-2-2-3-3-5-x-x-x--2-3-3-5-x-x--2-2-2-2-3-3----------|
E|-0-1-1-3-x-x--0-0-0-1-1-3-x-x-x--0-1-1-3-x-x--0-0-0-0-1-1----------|

Part 2 (repeat 8 times)

e|-------------------------|
B|-------------------------|
G|-------------------------|
D|-3-3-5-3-3-5-3-3-5-5-5-5-|
A|-3-3-5-3-3-5-3-3-5-5-5-5-|
E|-1-1-3-1-1-3-1-1-3-3-3-3-|

Part 2b (repeat 2 times)

e|-------------------------------------------------------|
B|-------3-------------3------------6-------------6------|
G|-----4----4--------4----4--------7---7--------7----7---|
D|---5--------5----5--------5----8-------8----8--------8-|
A|-6------------6--------------9-----------9-------------|
E|-------------------------------------------------------|

Part 3 (repeat 8 times)

e|------------------------------|
B|------------------------------|
G|------------------------------|
D|-4-4-x--x-x-x-x---------------|
A|-4-4-x--x-x-x-x-3h4p3h4p3h4p3-|
E|-2-2-x--x-x-x-x---------------|

Part 3b

e|------------------------|
B|------------------------|
G|------------------------|
D|-4-4-x--x-x-x-x-x-x-x-x-|
A|-4-4-x--x-x-x-x-x-x-x-x-|
E|-2-2-x--x-x-x-x-x-x-x-x-|

Part 3c (repeat 4 times)

e|-------------------------------|
B|-------------------------------|
G|-------------------------------|
D|-------------------------------|
A|-7p3h7p3h7p3h-6p2h6p2h6p2h6p2h-|
E|-------------------------------|

or

e|------------------------------|
B|------------------------------|
G|------------------------------|
D|------------------------------|
A|-7t3-7t3-7t3--6t2-6t2-6t2-6t2-|
E|------------------------------|

Part 4

e|-----
B|-----
G|-----
D|-4-4-
A|-4-4-
E|-2-2-

This is played in the follow order:

1, 2, 2b, 2*, 2b, 2*, 2b, 3, 3b, 3*, 3c, 3, 3c, 3, 3c, 4

* - 4 times only
Suggest correction
comments
print report bad tab
3 comments total.
0 reply
WhaTever4 188 wrote on September 5 2007, 07:31 pm

kinda right I guess seems fishy though

0 reply
danny mac 10 wrote on October 31 2007, 02:09 am

all perfect except for the chord bits at the end of the first riff.
well done :D

0 reply
danny mac 10 wrote on October 31 2007, 02:10 am

actually no i take that back. mostly right the first and second rifs are wrong tho

guest
You may want to rate the tab now too:
select rating
Please do not post tabs as comments. Select "correction" instead!