Oops, an error
Loading. Please wait.

Post Office Buddy Tab

version 4
version 4

Whole song

Interactive

6,551 views 3 this week
8 commentsread comments
1 2 3 4 5
excellent!
x 16
add to favorites
launch autoscroll
font size
0
reset
how to read this tab
guitar tuner
Autoscroll
slow
fast
+/-
esc
set tempo
stop
Help us to improve Ultimate-Guitar.com Take our survey!
×
Author
Difficulty
novice
Buckethead/Giant Robot
"Post Office Buddy" (from Giant Robot)

Song isn't too complicated; riff, phone call, repeat (riffs repeat ~8x)

Tuning: Standard

p.m.= palm mute
h = hammer-on
p = pull-off
x = muted note(s)

Riffs:
e|-------------------------------|
B|-------------------------------|
G|-------------------------------|
D|-2--3-2--6---2-2--2-2--3-2--6--|
A|-2--3-2--6---2-2--2-2--3-2--6--|
E|-0--1-0--4---0-0--0-0--1-0--4--|
               p.m.____

e|-----------------------------0--------|
B|-------------------------------0------|
G|---------------------------------0----|
D|-2--3-2--6---2-2--2-2--3-2---------1--|
A|-2--3-2--6---2-2--2-2--3-2------------|
E|-0--1-0--4---0-0--0-0--1-0------------|
               p.m.____

e|-----------------------------------------|
B|-----------------------------------------|
G|-----------------------------------------|
D|-----------------------------------------| for the E5
A|--2-3-6--6-2-3-6---6-2-3-6-6-6-6--2-3-6--| it's easier to play
E|--0-1-4--4-0-1-4---4-0-1-4-4-4-4--0-1-4--| without the 2nd fret on A
    p.m.     p.m.      p.m.         p.m.
(pm E5 and F5)

e|-------------------------------------------------------------|
B|-------4----------------4---------------7--------------7-----|
G|-----4---4---4--------4---4-----------7----7---7-----7---7---|
D|---5-------5--------5-------5-------8--------8-----8-------8-|
A|-6----------------6---------------9--------------9-----------|
E|-------------------------------------------------------------|

e|----------------------------------|
B|----------------------------------|
G|----------------------------------|
D|--3-3---x--x-x--x-x---------------|
A|--3-3---x--x-x--x-x--2h3p2h3p2h3--|
E|--1-1---x--x-x--x-x---------------|


e|-------------------------|
B|-------------------------|
G|-------------------------|
D|-3-3--x--x-x--x-x--x-x-x-|
A|-3-3--x--x-x--x-x--x-x-x-|
E|-1-1--x--x-x--x-x--x-x-x-|

Part 3c (repeat 4 times)

e|------------------|
B|------------------|
G|------------------|
D|--2-2-2-1-1-1-1---|
A|-3-3-3-2-2-2-2----|
E|------------------|
  p.m.___________


e|---------|
B|---------|
G|---------|
D|--3--3---|
A|--3--3---|
E|--1--1---|
Suggest correction
comments
print report bad tab
8 comments total. Showing first comments.
0 reply
WhaTever4 188 wrote on September 5 2007, 07:35 pm

Way Better than that the other tabs five stars!

0 reply
guitaristguy043 36 wrote on October 4 2007, 12:35 pm

nice

0 reply
HC-Deathroll 41 wrote on January 11 2008, 01:33 pm

Haven't Played it yet, but it looks good. When i get home i'll play this for sure.

guest
You may want to rate the tab now too:
select rating
Wanna post a correction for this tab? Suggest correction