Oops, an error
Loading. Please wait.

Puddles Tab

22 views 3 this week
2 commentsread comments
1 2 3 4 5
2 more votes to show rating
add to favorites
launch autoscroll
font size
0
reset
how to read this tab
guitar tuner
Autoscroll
slow
fast
+/-
esc
set tempo
stop
Help us to improve Ultimate-Guitar.com Take our survey!
×
Author
Difficulty
Tuning
novice
D# G# C# F# A# D#
'PUDDLES'
by Buckethead


tabbed by:    Dropdeee
tuning:       half-step down
effect:       delay
video:        https://www.youtube.com/watch?v=UlUC2arw4ao
album:        Pike 219 - 'Raindrops On Christmas'






 [Intro]

eb|--------------|--------0-----|--1-----1--3--|--0-----------|
Bb|--------5-----|--3--------3--|--------------|-----1--------|
Gb|--5--------5--|-----0--------|-----2--------|--------2--2--|
Db|-----5--------|--------------|--0-----------|--------------|
Ab|--3-----------|--2-----------|--------------|--0-----------|
Eb|--------------|--------------|--------------|--------------|

eb|--------------|--------------|--------------|
Bb|--1-----------|--0-----------|--------------|
Gb|-----2-----2--|-----0-----0--|--2-----------|
Db|--------2-----|--------0-----|--0-----------|
Ab|--0-----------|--------------|--------------|
Eb|--------------|--3-----------|--------------|



 00:15
eb|--------------12--15--15------17---19-19-15-----------20/22-20-------------|
Bb|--13----13h15--------------------------------17---18-----------------------|
Gb|---------------------------------------------------------------------------|
Db|---------------------------------------------------------------------------|
Ab|---------------------------------------------------------------------------|
Eb|---------------------------------------------------------------------------|

eb|---------------------15---------------------------------------------------------------------|
Bb|--18-17---15h17---17------18p17-17h18p17----------------------------------------------------|
Gb|-----------------------------------------17---17-17h19p17-16---16\14-14\12-12---13-\12--10--|
Db|--------------------------------------------------------------------------------------------|
Ab|--------------------------------------------------------------------------------------------|
Eb|--------------------------------------------------------------------------------------------|

eb|--17---19-20---------------------------------------------------------------|
Bb|----------------18----17----13----13h15p13-12--------(10)-(13)-------------|
Gb|------------------------------------------------(10)-----------------------|
Db|---------------------------------------------------------------------------|
Ab|---------------------------------------------------------------------------|
Eb|---------------------------------------------------------------------------|

 00:59
eb|---------------12h13-12----13-13-13-13h15p13-12------------------------------|
Bb|--13--13-13h15-------------------------------------13---13h15p13-12----10----|
Gb|-----------------------------------------------------------------------------|
Db|-----------------------------------------------------------------------------|
Ab|-----------------------------------------------------------------------------|
Eb|-----------------------------------------------------------------------------|

eb|--------------12h13-12--15fb(r)15-----17-----------------------------------------|
Bb|--13-13-13h15----------------------------17---17---------------------------------|
Gb|------------------------------------------------17---17h19p17-16----16/17---\16--|
Db|---------------------------------------------------------------------------------|
Ab|---------------------------------------------------------------------------------|
Eb|---------------------------------------------------------------------------------|

 01:29
eb|--------------------------17---15--\13-12--------------------------------------|
Bb|--13-13-13--13h15-17---17--------------------13---13h15p13-12----10------------|
Gb|-------------------------------------------------------------------------------|
Db|-------------------------------------------------------------------------------|
Ab|-------------------------------------------------------------------------------|
Eb|-------------------------------------------------------------------------------|

eb|----------------------------------------------------------------------------------|
Bb|-------------------------15---17---18-17p15-g13/15----(17)-17---------------------|
Gb|-------17-16p14--16-17------------------------------------------19\17-16--16------|
Db|--(14)------------------------------------------------------------------------17--|
Ab|----------------------------------------------------------------------------------|
Eb|----------------------------------------------------------------------------------|

eb|--------------------------------------------------------------------------------|
Bb|-----------------------------------------------12-13----------------------------|
Gb|--------------------------------10h12-g12/14---------12--12---------------------|
Db|--(15)(14)--14-14h15-12---12h14------------------------------14----12--10\9-10--|
Ab|--------------------------------------------------------------------------------|
Eb|--------------------------------------------------------------------------------|

 02:13
eb|---------------------------------------------------------------------------|
Bb|-----------------------------15p13-12--13---13h15p13-12--------------------|
Gb|--------------12--12/14-----------------------------------12-12/14---------|
Db|--14----14/15-------------------------------------------------------14-----|
Ab|---------------------------------------------------------------------------|
Eb|---------------------------------------------------------------------------|

eb|-----19-20--20-20--20p19-19--17---17-----17-19-20----------------------|
Bb|--17----------------------------------------------18-\17-17-\--15/17~~-|
Gb|-----------------------------------------------------------------------|
Db|-----------------------------------------------------------------------|
Ab|-----------------------------------------------------------------------|
Eb|-----------------------------------------------------------------------|

eb|---------------------------------------------|
Bb|--13h15p13\12-/13----------------------------|
Gb|------------------12--12/14~~---12-----------|
Db|----------------------------------g14\12-10--|
Ab|---------------------------------------------|
Eb|---------------------------------------------|

 02:41
eb|---------------------------------------------------------------------------|
Bb|---------------------------------------------13---13\12-12----13--12--10---|
Gb|------------------------------12---10\9-9----------------------------------|
Db|--10-12/14-14---14--h15-12-------------------------------------------------|
Ab|---------------------------------------------------------------------------|
Eb|---------------------------------------------------------------------------|
                                                             
eb|------------------------------------------------------------12--(15)-15---13--\12-12--|
Bb|--13\12----------------------------------------13-13-13-(15)--------------------------|
Gb|--------12----------12--12h14~--12----------------------------------------------------|
Db|--------------12h14---------------g14\12-10-------------------------------------------|
Ab|--------------------------------------------------------------------------------------|
Eb|--------------------------------------------------------------------------------------|

 03:12
eb|---------------------------------------------------------------------------|
Bb|--13p12h13-----------------------------------------------------------------|
Gb|------------12--------12---10p9-9h10p9---------------------------------9---|
Db|----------------14---------------------10---10---10-12-10-9----9/10-10-----|
Ab|---------------------------------------------------------------------------|
Eb|---------------------------------------------------------------------------|

eb|--(8)-(7)--------------------10--12--15-15~--15fbr-15~~\-------------------|
Bb|---------(8)-8/10~-----12-13---------------------------------13-15--15hbr~-|
Gb|----------------------------------------------------------14---------------|
Db|---------------------------------------------------------------------------|
Ab|---------------------------------------------------------------------------|
Eb|---------------------------------------------------------------------------|

eb|-------------------------------------------------12-10--------------------------------------|
Bb|--13p12h13----------------------------------13--------h13-12-13-13--12--10------------------|
Gb|-----------12--12----12/14~-12-----------12---------------------------------12--(fade out)--|
Db|-------------------------------12\10--------------------------------------------------------|
Ab|--------------------------------------------------------------------------------------------|
Eb|--------------------------------------------------------------------------------------------|






************************************

| g   Grace note
| (n) Ghost note
| h   Hammer-on
| p   Pull-off
| r   Release
| fb  Full Bend
| hb  Half Bend
| br  Bend release
| pb  Pre-bend
| fpb Full Pre-bend
| pbr Pre-bend release
| /   Slide up
| \   Slide down
| ~   Vibrato
| PM  Palm mute


************************************
Suggest correction
Give kudos to tab author, rate the tab!
1 2 3 4 5
comments
print report bad tab
2 comments total.
0 reply
fedepichel 10 Nov 22, 2016 12:59 PM

EXCELENTE!!!!!!!

0 reply
DropDeee 1,630 Nov 23, 2016 01:01 AM

Thank you! Hope you can make use of this tab for this beautiful song :)

guest
You may want to rate the tab now too:
select rating
Wanna post a correction for this tab? Suggest correction