Oops, an error
Loading. Please wait.

Pure Imagination Bass Tab

version 1
version 1

Whole song

Interactive

1,710 views 1 this week
no commentswrite comment
1 2 3 4 5
please rate
add to favorites
launch autoscroll
font size
0
reset
guitar tuner
Tab Pro tools
  • play this tab
  • loop segment
  • change instrument
  • show fretboard
  • metronome
×
Best way to learn
"Pure Imagination"
Autoscroll
slow
fast
+/-
esc
set tempo
stop
Contributor
I found this as a guitar tab, but as you can see I rewrote a very large amount of it. 
rewritten stuff is my work)

Tuning: Standard (EADG)

Tabbed by: Gruesome Demise

g---------------------------------------|
d-----7-----7-----9--10-9-10-9-10-9-----|
a---5-----5-----5-------------------10--|
e-7-----7-----7-------------------------|
come with me...

g-----4--5-7-4--2-------------------|
d---5-------------5-4--5-4-5-4-5-4--|
a-7--------------------------------5|
e-----------------------------------|
take a look...

g-15--17-15-17-15--15-14------|------------------7-|
d------------------------15-12|9--10-9-10-9----9---|
a-----------------------------|-------------10-----|
e-----------------------------|--------------------|
if you want to view...

g-9--10-9-10-9---7-9|----------------------------|
d--------------9-0--|-7--8-7-8-7--7--8--9--10--11|
a-------------------|----------------------------|
e-------------------|----------------------------|
anything you want to....

g---------------------------------------|
d-----7-----7-----9--10-9-10-9-10-9-----|
a---5-----5-----5-------------------10--|
e-7-----7-----7-------------------------|

g-----4--5-7-4--2------7-----0-|
d---5-------------5-4--0--4--5-|
a-7----------------------------|
e------------------------------|
comments
We did not receive enough feedback on this tab! Please rate:
print report bad tab
1 2 3 4 5
I want to post or [tab]
guest
You may want to rate the tab now too:
select rating
Please do not post tabs as comments. Select "correction" instead!