Oops, an error
Loading. Please wait.

Pure Imagination Bass Tab

version 2
version 2

Whole song

Interactive

2,448 views 6 this week
no commentswrite comment
1 2 3 4 5
3 more votes to show rating
add to favorites
launch autoscroll
font size
0
reset
guitar tuner
Autoscroll
slow
fast
+/-
esc
set tempo
stop
Help us to improve Ultimate-Guitar.com Take our survey!
×
Difficulty
novice
Pure imagination by Buckethead on the album Giant Robot. Transcribed onto bass because I 
find it anywhere else. Sounds great if you have any sort of envelope filter/wah. For 
or hate mail send them to RockinFunkorilla@hotmail.com

Play once all the way through.

g-----7-----7------11-12-11-12-11-12-11--|
d---5-----5-----5----------------------12|
a-7-----7-----7--------------------------|
e----------------------------------------|
come with me...


g-----4-5-7-4-2------------------|
d---5-----------5-4-5-4-5-4-5-4--|
a-7-----------------------------5|
e--------------------------------|
take a look...


g-13-15-13-15-13-13-12----------|5-6-5-6-5---4-7|
d---------------------13--------|----------6----|
a------------------------14-----|---------------|
e-------------------------------|---------------|
if you want to view...

g-12-13-12-13-7-10-12|9-11-9-11-9--11-12-13-14-15\|
d--------------------|-------------9--10-11-12-13\|
a--------------------|----------------------------|
e--------------------|----------------------------|
anything you want to...

g-----7-----7------11-12-11-12-11-12-11--|
d---5-----5-----5----------------------12|
a-7-----7-----7--------------------------|
e----------------------------------------|
There is no, life I know...

g-----4-5-7-4-2-----7-------------|
d---5-----------5-4---4----4------|
a-7---------------------------5~\1|
e---------------------------------|
Living there, you'll be free...
Suggest correction
Give kudos to tab author, rate the tab!
1 2 3 4 5
comments
print report bad tab
guest
You may want to rate the tab now too:
select rating
Wanna post a correction for this tab? Suggest correction