Oops, an error
Loading. Please wait.

Pure Imagination Tab

version 2
version 2

Interactive

11,682 views 9 this week
no commentswrite comment
1 2 3 4 5
please rate
add to favorites
launch autoscroll
font size
0
reset
how to read this tab
guitar tuner
Autoscroll
slow
fast
+/-
esc
set tempo
stop
Help us to improve Ultimate-Guitar.com Take our survey!
×
Contributor
Difficulty
novice
 Buckethead - Pure Imagination - Played Slow 
 
Yes, this was in Charlie and The Chocolate Factory but, it's still a great lick.

Guitar 1:

E|-------------------------------------------|
B|--------------------------7-8-7-8-7-8-7----|
G|-------7~------7~-----------------------7~-|
D|-----5-------5-------5---------------------|
A|---7-------7-------7-----------------------|        
E|-------------------------------------------|


E|-------------------------------------------|
B|-------------------------------------------|
G|-------4~--5-7-4~----2--0------------------|
D|-----5--------------------4-5-4-5-4-5-4----|
A|---7------------------------------------5~-|
E|-------------------------------------------| 


E|---3-5-3-5-3--3-2---------------------------|
B|------------------3--------------------3~---|
G|--------------------4~--4-5-4-5-4----4------|
D|-----------------------------------5--------|
A|--------------------------------------------|
E|--------------------------------------------| 


E|---2-3-2-3-2------2-0---0-2-0-2-0--3-5~-----|
B|-------------2------------------------------|
G|---------------4----------------------------|
D|--------------------------------------------|
A|--------------------------------------------|
E|--------------------------------------------|

Once you practice this easy lick, try it a super speed!  ;D
  
comments
We did not receive enough feedback on this tab! Please rate:
print report bad tab
1 2 3 4 5
I want to post or [tab]
guest
You may want to rate the tab now too:
select rating
Please do not post tabs as comments. Select "correction" instead!