Oops, an error
Loading. Please wait.

Rain Drops On Christmas intro tab

130 views 1 this week
4 commentsread comments
1 2 3 4 5
x 4
add to favorites
×
Save as Personal and add changes to this tab that will be seen only by you. Learn more ›
×
You can save this tab as Personal to edit and correct it or add notes. All changes will be seen only by you. Learn more »
launch autoscroll
font size
0
reset
how to read this tab
guitar tuner
edit
Autoscroll
slow
fast
+/-
esc
set tempo
stop
Author
Difficulty
'RAIN DROPS ON CHRISTMAS'
by Buckethead


tabbed by:    Dropdeee
tuning:       Standard
effect:       delay
video:        https://www.youtube.com/watch?v=TcH5Xkr085M
album:        Pike 219 - 'Rain Drops on Christmas'




[Intro]

e|-------9------------|------7---------|---------------|-----------------|
B|-------10-----------|------9---------|---------------|-----5-----------|
G|-------9------------|-----9----------|---7-----------|-----6-----------|
D|-----11-------------|----9-----------|---X-----------|----7------------|
A|---12---------------|---7------------|---5-----------|---0-------------|
E|--------------------|----------------|---------------|-----------------|

e|-------9--------|---7-------|-----------|-----5--------|
B|-------10-------|---9-------|-----------|-----5--------|  ( )notes are
G|-------9--------|---9-------|---7-------|-----6--------|    bass notes
D|-----11---------|--(9)------|---X-------|----7---------|    They fit but
A|---12-----------|--(7)------|---5-------|---0----------|    are optional
E|----------------|-----------|-----------|--------------|    throughout tab

e|----------------------9----------9--10----12--|--------------------------|
B|---10------12-------10-------10---------------|-------12-----------------|
G|-------------------9--------------------------|-----13-------13----------|
D|----------------------------------------------|---14-------------14------|
A|----------------------------------------------|--------------------------|
E|----------------------------------------------|--------------------------|

e|----------------------------------------------|
B|---10------10---------------------------------|
G|---11---------11--9---------------------------|
D|---12-----------------12-----11---------------|
A|---12-----------------------(0)---------------|
E|----------------------------------------------|

e|----------------------------------------------|
B|---10-----------------------------------------|
G|---------11----9----------------9-------------|
D|-------------------11h12------11--------------|
A|--(0)-----------------------12----------------|
E|----------------------------------------------|

e|-----------------------------------------------------|-----------------------------------------------------|
B|-----------------------------------------------------|-----------------------------------------------------|
G|---------------------------------------------14---13-|-13---13----------------------------------7----------|
D|------11-----11--11--11-h12--14--14-------14---------|-----------16-16---16---(14)-----11-11----0---9h11---|
A|---12------------------------------------------------|------------------------------------------0----------|
E|-----------------------------------------------------|(12)-------------------------------------------------|

e|-------9-------|------7------|----5------|----------|------------|
B|-------10------|-----9-------|---7-------|---0------|-----5------|
G|-------9-------|----9--------|-----------|----------|----6-------|
D|-----11--------|--(9)--------|-----------|----------|---7--------|
A|---12----------|--(7)--------|--(5)------|--(0)-----|------------|
E|---------------|-------------|-----------|----------|------------|




************************************

| x   Dead note
| h   Hammer-on

************************************

            
            
Suggest correction
Creating personal tab
Creating personal tab
You can edit any tab online and save it as your Personal.

You can edit, replace or remove any tab part or add personal notes – all changes will be seen only by you.

Personal tabs can be accessed anytime from any device, even offline.
Learn more »
comments
print report bad tab
4 comments total. Showing first comments.
+2 reply
fedepichel 10 Dec 09, 2016 06:54 AM

Mil gracias nuevamente, tu gusto por los temas de buckethead es excelente,

+1 reply
DropDeee 4,141 Dec 09, 2016 11:17 AM

El lado más suave de Buckethead es tan hermoso :)

+2 reply
fedepichel 10 Dec 09, 2016 11:34 AM

Totalmente de acuerdo, estoy escuchando cove, hermosoo

guest
You may want to rate the tab now too:
select rating
Wanna post a correction for this tab? Suggest correction