Oops, an error
Loading. Please wait.

Rainbow Tab

31 views 1 this week
2 commentsread comments
1 2 3 4 5
1 last vote to show rating
add to favorites
launch autoscroll
font size
0
reset
how to read this tab
guitar tuner
Autoscroll
slow
fast
+/-
esc
set tempo
stop
Help us to improve Ultimate-Guitar.com Take our survey!
×
Author
Difficulty
Tuning
novice
D# G# C# F# A# D#
'RAINBOW'
by Buckethead


tabbed by:    Dropdeee
tuning:       half-step down
effects:      clean/slight lead
video:        https://www.youtube.com/watch?v=GFeCz77GL-Q
album:        Pike 46 - 'Rainy Days'





 [Intro]

eb|------9------------------|------------------------------------------------|
Bb|----------12---10--------|------g10/12--10--------------------------------|
Gb|---11---------------11---|----------------g11\9--7--9/11------------------|
Db|-------------------------|------------------------------------------------|
Ab|-------------------------|------------------------------------------------|
Eb|-------------------------|------------------------------------------------|

eb|------9---------------------|---------------------------------------------|
Bb|----------12---10-----------|---------------------------------------------|
Gb|---11----------------9---9--|-9h11--9-------------------------------------|
Db|----------------------------|---------12-11---11-11h12--12-12-------------|
Ab|----------------------------|---------------------------------------------|
Eb|----------------------------|---------------------------------------------|

 00:12
eb|--------------------------------------|-----------------------------------|
Bb|--------------------------------------|-----------------------------------|
Gb|--------------------------------------|-----------------------------------|
Db|--11h12p11----------------------------|---11h12p11------------------------|
Ab|----------h14-14---12-12--h14-14--14--|-----------h14-14---12-14----------|
Eb|--------------------------------------|-----------------------------------|

eb|-----------------------------------|--------------------------------------|
Bb|-----------------------------------|--------------------------------------|
Gb|-----------------------------------|--------------------------------------|
Db|--11h12--12--12--12-12--14--14/16--|-14p12-11--11--11--11-11--12--12------|
Ab|-----------------------------------|--------------------------------------|
Eb|-----------------------------------|--------------------------------------|

eb|------------------------------|-------------------------------------------|
Bb|------------------------------|-------------------------------------------|
Gb|--9h11~~----------------------|--9h11--------9------------------9---------|
Db|------------------------------|------------------12--11--12p11------------|
Ab|------------------------------|-------------------------------------------|
Eb|------------------------------|-------------------------------------------|

eb|-----------------10-9-----------------|
Bb|---------12-10----------10h12--12-----|
Gb|--11-9--------------------------------|
Db|--------------------------------------|
Ab|--------------------------------------|
Eb|--------------------------------------|

eb|-----------------10-9-----------------------------------------------------|
Bb|---------12-10----------12-10---12----------------------------------------|
Gb|--11-9-----------------------------11---9-------------9/11----------------|
Db|------------------------------------------12---11-11----------------------|
Ab|--------------------------------------------------------------------------|
Eb|--------------------------------------------------------------------------|

 00:48
eb|-----9--------------------|-9-------------------|-9--------------------|-10-/12--12h14--14-14-\----|
Bb|--------10--12------------|----10--12-----------|----10--12------------|---------------------------|
Gb|--11------------9---11-11-|------------9-/11-11-|------------9---11-11-|---------------------------|
Db|--------------------------|---------------------|----------------------|---------------------------|
Ab|--------------------------|---------------------|----------------------|---------------------------|
Eb|--------------------------|---------------------|----------------------|---------------------------|

eb|-----9----------------------|-9--------10---9---10-9-\-|-5---7------------------|------------------0--|
Bb|--------10--12--------------|-----12-------------------|------5h7---g5h7p5--3\2-|-1/2--2-2--2--2------|
Gb|--11-----------g9h11---9-11-|--------------------------|------------------------|---------------------|
Db|----------------------------|--------------------------|------------------------|---------------------|
Ab|----------------------------|--------------------------|------------------------|---------------------|
Eb|----------------------------|--------------------------|------------------------|---------------------|

 01:12
eb|-------------------------------------|------------5--5h7~--/--9---10---12--|
Bb|--5h7~~----------------------------5-|-5h7~~-------------------------------|
Gb|----------------------------4h6h7----|-------------------------------------|
Db|-------------------------------------|-------------------------------------|
Ab|-------------------------------------|-------------------------------------|
Eb|-------------------------------------|-------------------------------------|

eb|--14---12-14-----------------------12-15-----15----------------------12----|
Bb|---------------12-12------12h14h15--------12-----12-12------12h14h15-------|
Gb|---------------------------------------------------------------------------|
Db|---------------------------------------------------------------------------|
Ab|---------------------------------------------------------------------------|
Eb|---------------------------------------------------------------------------|

eb|--15--15-15------------19-19-19p17-17-17\15-15-15-15-14-14---14------------|
Bb|-------------12-12---------------------------------------------------------|
Gb|---------------------------------------------------------------------------|
Db|---------------------------------------------------------------------------|
Ab|---------------------------------------------------------------------------|
Eb|---------------------------------------------------------------------------|

eb|--14---12-14----------------------12-14-----14------------|
Bb|---------------12-12-----12h14h15--------12-----12--12----|
Gb|----------------------------------------------------------|
Db|----------------------------------------------------------|
Ab|----------------------------------------------------------|
Eb|----------------------------------------------------------|

eb|--14------14---------------------------------------------------------------|
Bb|-------12-----12-12----12h14h15--14---10---7---5---3--0--------------------|
Gb|---------------------------------------------------------------------------|
Db|---------------------------------------------------------------------------|
Ab|---------------------------------------------------------------------------|
Eb|---------------------------------------------------------------------------|

 01:48
eb|---------------------------------------------------------------------------|
Bb|--3p2-3p2-3p2-3p2-3p2-3p2-3p2-3p2-3p2-3p2-3p2-3p2-3--2---------------------|
Gb|--------------------------------------------------------4-4~~--------------|
Db|---------------------------------------------------------------------------|
Ab|---------------------------------------------------------------------------|
Eb|---------------------------------------------------------------------------|

eb|---------------------------------------------------------------------------|
Bb|--7-------------------------------10--10h12~-------------------------------|
Gb|--7\--------9hbrp7-------g9h11~~-------------11\9--------------------------|
Db|---------------------------------------------------------------------------|
Ab|---------------------------------------------------------------------------|
Eb|---------------------------------------------------------------------------|

                 PM-----|                      |slow bend|
eb|-------------------------------|-------------------------------------------|
Bb|-------------------------------|-------------------------------------------|
Gb|--fpb9--7~~-------7---9/11~~---|-----7--7fbr-----fb------7h9p7\6-/7~~/11~--|
Db|----------------9---9----------|--(9)--------------------------------------|
Ab|-------------------------------|-------------------------------------------|
Eb|-------------------------------|-------------------------------------------|

 02:12
eb|-----9---10----|------9--7-7----|------9---10-10----|------9---7-7---------|
Bb|---------------|----7-----------|----7--------------|----7-----------------|
Gb|--11-----------|----------------|-------------------|----------------------|
Db|---------------|----------------|-------------------|----------------------|
Ab|---------------|----------------|-------------------|----------------------|
Eb|---------------|----------------|-------------------|----------------------|

eb|-----9---10----|------9--7-7----|------9---10-10----|------9---------------|
Bb|--7------------|----7-----------|----7--------------|----7----------10-----|
Gb|---------------|----------------|-------------------|----------------------|
Db|---------------|----------------|-------------------|----------------------|
Ab|---------------|----------------|-------------------|----------------------|
Eb|---------------|----------------|-------------------|----------------------|

eb|--9---10-------|-----9---7-7----|------9---10-10----|------9---7-7---------|
Bb|---------------|---7------------|----7--------------|----7-----------------|
Gb|---------------|----------------|-------------------|----------------------|
Db|---------------|----------------|-------------------|----------------------|
Ab|---------------|----------------|-------------------|----------------------|
Eb|---------------|----------------|-------------------|----------------------|



************************************

| g   Grace note
| (n) Ghost note
| h   Hammer-on
| p   Pull-off
| r   Release
| b   Bend
| br  Bend release
| pb  Pre-bend
| fpb Full Pre-bend
| pbr Pre-bend release
| /   Slide up
| \   Slide down
| ~   Vibrato
| PM  Palm mute

************************************
Suggest correction
Give kudos to tab author, rate the tab!
1 2 3 4 5
comments
print report bad tab
2 comments total.
0 reply
tamagoed 10 5 days ago

man i love you for this

0 reply
DropDeee 1,631 5 days ago

Haha, thanks for checking it out! I think there's a couple of missed notes now that I listen back so I will spend 10 minutes on it later and add them so check back tomorrow and it'll be more refined. When you spend hours one end tabbing you get a little cross-eyed and a little lazy :p

guest
You may want to rate the tab now too:
select rating
Wanna post a correction for this tab? Suggest correction