Oops, an error
Loading. Please wait.
We have an official Soothsayer tab made by UG professional guitarists. Check out the tab »
×

Soothsayer intro tab

85,750 views 45 this week
4 commentsread comments
1 2 3 4 5
x 9
add to favorites
×
Save as Personal and add changes to this tab that will be seen only by you. Learn more ›
×
You can save this tab as Personal to edit and correct it or add notes. All changes will be seen only by you. Learn more »
launch autoscroll
font size
0
reset
how to read this tab
guitar tuner
backing track
0:00
0:00
edit
Autoscroll
slow
fast
+/-
esc
set tempo
stop
Author
-------------------------------------------------------------------------------
                        Soothsayer - Buckethead
-------------------------------------------------------------------------------

Tabbed by:Kameron_Frye
Email:Kameron_Frye@yahoo.com

This is only the first 2:46 of the song. im trying to tab the rest now. If u have any 
feel free to contact me


Tuning: Standard


| *  kill switch
| <  pick slide up
| >  pick slide down

| /  slide up
| \  slide down
| h  hammer-on
| p  pull-off
| ~  vibrato
| +  harmonic
| x  Mute note


X3
0:00-0:37

e|----------------9p8--------------------------------------------------------|
B|--------11-----------11----9-11-9------9-----------------------------------|
G|-----10-----------------10-----------8---8-11---10-11-10-------------------|
D|---8-----------------------------------------------------11----------------|
A|---------------------------------------------------------------------------|
E|---------------------------------------------------------------------------|

e|----------------9p8--------------------------------------------------------|
B|--------11-----------11----9-11-9------9-----------------------------------|
G|-----10-----------------10-----------8---8-11------------------------------|
D|---8-----------------------------------------------------------------------|
A|---------------------------------------------------------------------------|
E|---------------------------------------------------------------------------|

4X
0:38-1:02
e|----------------9p8--------------------------------------------------------|
B|--------11-----------11----9-11-9-------9--6-------------------------------|
G|-----10-----------------10------------8----6-------------------------------|
D|---8--------------------------------6--------------------------------------|
A|---------------------------------------------------------------------------|
E|---------------------------------------------------------------------------|

1X
1:04-1:28

e|---------------------|-------------------|---------------------------------|
B|---------------------|-------------------|---------------------------------|
G|---------------------|-------------------|---------------------------------|
D|---3-3-XX-6-6-6/11---|--3-3-xx-6-6-6-3---|-------------3-6-5-3-------------|
A|---1-1-XX-4-4-4/9----|--1-1-xx-4-4-4/1---|-------3-5-6---------6-3---------|
E|---------------------|-------------------|-3-5-6---------------------------|

e|---------------------|-----------------------------------------------------|
B|----------------7----|-----------------------------------------------------|
G|----------------6----|-----------------------------------------------------|
D|---3-3-XX-6-464-4----|-3-3-xx-6-6-6-3--------------------------------------|
A|---1-1-XX-4----------|-1-1-xx-4-4-4/1--------------------------------------|
E|---------------------|-----------------------------------------------------|

2X
1:29-1:54
e|----------------9p8--------------------------------------------------------|
B|--------11-----------11----9-11-9------9-----------------------------------|
G|-----10-----------------10-----------8---8-11---10-11-10-------------------|
D|---8-----------------------------------------------------11----------------|
A|---------------------------------------------------------------------------|
E|---------------------------------------------------------------------------|

e|----------------9p8--------------------------------------------------------|
B|--------11-----------11----9-11-9------9-----------------------------------|
G|-----10-----------------10-----------8---8-11------------------------------|
D|---8-----------------------------------------------------------------------|
A|---------------------------------------------------------------------------|
E|---------------------------------------------------------------------------|

1X
1:54-2:46

e|---------------------|-------------------|---------------------------------|
B|---------------------|-------------------|---------------------------------|
G|---------------------|-------------------|---------------------------------|
D|---3-3-XX-6-6-6/11---|--3-3-xx-6-6-6-3---|-------------3-6-5-3-------------|
A|---1-1-XX-4-4-4/9----|--1-1-xx-4-4-4/1---|-------3-5-6---------6-3---------|
E|---------------------|-------------------|-3-5-6---------------------------|

e|---------------------|-----------------------------------------------------|
B|---------------------|-----------------------------------------------------|
G|---------------------|-----------------------------------------------------|
D|---3-3-XX-6-464------|-3-3-xx-6-6-6-3--------------------------------------|
A|---1-1-XX-4----------|-1-1-xx-4-4-4/1--------------------------------------|
E|---------------------|-----------------------------------------------------|
                                      * * * * * * * * * * * * * * * * * * * *

e|---------------------|-----------------------------------------------------|
B|---------------------|-----------------------------------------------------|
G|---------------------|-----------------------------------------------------|
D|---3-3-XX-6-6-6/11---|--3-3-xx-6-6-6-3-------------------------------------|
A|---1-1-XX-4-4-4/9----|--1-1-xx-4-4-4/1-----1/------------------------------|
E|---------------------|------------------<----------------------------------|

e|---------------------|-----------------------------------------------------|
B|---------------------|-----------------------------------------------------|
G|---------------------|-----------------------------------------------------|
D|---3-3-XX-6-6-6/11---|-3-3-xx-6-6-6-3--------------------------------------|
A|---1-1-XX-4-4-4/9----|-1-1-xx-4-4-4/1--------------------------------------|
E|---------------------|-----------------------------------------------------|
                                      * * * * * * * * * * * * * * * * * * * *

            
            
Suggest correction
Creating personal tab
Creating personal tab
You can edit any tab online and save it as your Personal.

You can edit, replace or remove any tab part or add personal notes – all changes will be seen only by you.

Personal tabs can be accessed anytime from any device, even offline.
Learn more »
comments
print report bad tab
4 comments total. Showing first comments.
0 reply
Sodacake 10 Oct 28, 2006 04:13 AM

A slight correction:
e|---------------------|-------------------|---------------------------------|
B|---------------------|-------------------|---------------------------------|
G|---------------------|-------------------|---------------------------------|
D|---3-3-XX-6-6-6/11---|--3-3-xx-6-6-6-----|-------------3-6-5-3-------------|
A|---1-1-XX-4-4-4/9----|--1-1-xx-4-4-4-4---|-------3-5-6---------6-4---------|
E|---------------------|---------------2---|-3-5-6---------------------------|
I played along with the song and it sounds better this way :)

0 reply
Sodacake 10 Oct 28, 2006 09:10 AM

e|---------------------|-------------------|---------------------------------|
B|---------------------|-------------------|---------------------------------|
G|---------------------|-------------------|---------------------------------|
D|---3-3-XX-6-6-6/11---|--3-3-xx-6-6-6-----|-------------3-6-5-3-------------|
A|---1-1-XX-4-4-4/9----|--1-1-xx-4-4-4-4---|-------3-5-6---------6-5---------|
E|---------------------|---------------2---|-3-5-6---------------------------|
Sorry another little correction.

0 reply
kdcisgod 184 Dec 09, 2006 11:30 AM

it was alright, i'm not gonna hate on you and be like YOUR TAB SUCKS

you're going in the right direction
your scale run in the chorus is wrong
some of the verse stuff is wrong
i'm actually working on a gp4 tab of the entire song
[lead guitar and all]
wish me luck, haha

-Dewey

guest
You may want to rate the tab now too:
select rating
Wanna post a correction for this tab? Suggest correction