Oops, an error
Loading. Please wait.

Soothsayer Tab

version 1
version 1
269,353 views 621 this week
12 commentsread comments
1 2 3 4 5
x 42
add to favorites
launch autoscroll
font size
0
reset
how to read this tab
guitar tuner
Autoscroll
slow
fast
+/-
esc
set tempo
stop
Help us to improve Ultimate-Guitar.com Take our survey!
×
Song: Soothsayer
By: Buckethead

Tabbed by: Mike Medrek


[Intro riff 1] x3

(clean, with delay)

e|-------------9p8-------------------------------------------|
B|--------11--------11----9-11-9-----9-----------------------|
G|----10---------------10---------8-----8--11---10--11-10----|
D|-8------------------------------------------------------11-|
A|-----------------------------------------------------------|
E|-----------------------------------------------------------|

e|-------------9p8-------------------------------------------|
B|--------11--------11----9-11-9-----------------------------|
G|----10---------------10------------------------------------|
D|-8---------------------------------------------------------|
A|-----------------------------------------------------------|
E|-----------------------------------------------------------|


[Intro riff 2] x4

e|-------------9p8-------------------------------------------|
B|--------11--------11----9-11-9--------9--6-----------------|
G|----10---------------10------------8-----6-----------------|
D|-8------------------------------6--------------------------|
A|-----------------------------------------------------------|
E|-----------------------------------------------------------|


[Part 1]

Distortion on, delay off

e|-------------------------------------------------|
B|-------------------------------------------------|
G|-----------3---3--X-X-6--6--6--11----------------|
D|-X/~~~~~~~-3---3--X-X-6--6--6--11----------------|
A|-X/~~~~~~~-1---1--X-X-4--4--4--9-----------------|
E|-------------------------------------------------|
|Pick slide|

e|--------------------------------------------------|
B|--------------------------------------------------|
G|-3---3--X-X-6--6--6-------------------------------|
D|-3---3--X-X-6--6--6--4---------------3-6-5-3------|
A|-1---1--X-X-4--4--4--4---------3-5-6---------6-3--|
E|---------------------2---3-5-6--------------------|
                        |---------Muted-----------|

e|-------------------------------------------------|
B|-----------------9--7-------7------------------7-|
G|-3---3-X-X-6--6--8--6-------6------------------6-|
D|-3---3-X-X-6--6--6--4-------4------------------4-|
A|-1---1-X-X-4--4----------------------------------|
E|-------------------------------------------------|

e|-------------------------------------------------|
B|-------------------------------------------------|
G|-3---3--X-X-6-----6------------------------------|
D|-3---3--X-X-6-----6--4---------------------------|
A|-1---1--X-X-4-----4--4---------------------------|
E|---------------------2---------------------------|


[Part 2]

Distortion off, delay on

  Play twice:
e|-------------9p8-------------------------------------------|
B|--------11--------11----9-11-9-----9-----------------------|
G|----10---------------10---------8-----8--11---10--11-10----|
D|-8------------------------------------------------------11-|
A|-----------------------------------------------------------|
E|-----------------------------------------------------------|

e|-------------9p8-------------------------------------------|
B|--------11--------11----9-11-9-----------------------------|
G|----10---------------10------------------------------------|
D|-8---------------------------------------------------------|
A|-----------------------------------------------------------|
E|-----------------------------------------------------------|


[Part 3]

Distortion on, delay off

e|-------------------------------------------------|
B|-------------------------------------------------|
G|-----------3---3--X-X-6-----6--11----------------|
D|-X/~~~~~~~-3---3--X-X-6-----6--11----------------|
A|-X/~~~~~~~-1---1--X-X-4-----4--9-----------------|
E|-------------------------------------------------|
|Pick slide|

e|--------------------------------------------------|
B|--------------------------------------------------|
G|-3---3--X-X-6--6----------------------------------|
D|-3---3--X-X-6--6-----4---------------3-6-5-3------|
A|-1---1--X-X-4--4-----4---------3-5-6---------6-3--|
E|---------------------2---3-5-6--------------------|
                        |---------Muted-----------|

e|-------------------------------------------------|
B|-----------------9--7--------------------------7-|
G|-3---3-X-X-6--6--8--6--------------------------6-|
D|-3---3-X-X-6--6--6--4--------------------------4-|
A|-1---1-X-X-4--4----------------------------------|
E|-------------------------------------------------|

e|--------------------------------------------------|
B|--------------------------------------------------|
G|-3---3--X-X-6-----6-------------------------------|
D|-3---3--X-X-6-----6--4----------------------------|
A|-1---1--X-X-4-----4--4----------------------------|
E|---------------------2----------------------------|
                      |------Tremolo effect-------|

e|-------------------------------------------------|
B|-------------------------------------------------|
G|-----------3---3--X-X-6-----6--11----------------|
D|-X/~~~~~~~-3---3--X-X-6-----6--11----------------|
A|-X/~~~~~~~-1---1--X-X-4-----4--9-----------------|
E|-------------------------------------------------|

e|-------------------------------------------------|
B|-------------------------------------------------|
G|-3---3--X-X-6-----6------------------------------|
D|-3---3--X-X-6-----6--4-----------------X/~~~~~~~-|
A|-1---1--X-X-4-----4--4-----------------X/~~~~~~~-|
E|---------------------2---------------------------|

e|-------------------------------------------------|
B|-------------------------------------------------|
G|------------------3---3--X-X-6-----6--11---------|
D|------------------3---3--X-X-6-----6--11---------|
A|------------------1---1--X-X-4-----4--9----------|
E|-9/12\---12/14\----------------------------------|
(two kind of discrete slides)

e|--------------------------------------------------|
B|--------------------------------------------------|
G|-3---3--X-X-6-----6-------------------------------|
D|-3---3--X-X-6-----6--4----------------------------|
A|-1---1--X-X-4-----4--4----------------------------|
E|---------------------2----------------------------|
                      |------Tremolo effect-------|


[Pre - solo]

e|-------------------------11-11-------------------|
B|-------13-13-14-14-11-11-------14-14-13-13-14-14-|
G|-10-10-------------------------------------------|
D|-------------------------------------------------|
A|-------------------------------------------------|
E|-------------------------------------------------|

e|-------------------------------------------------|
B|-11-11-13-13-------------------------------------|
G|-------------10-10-13-13-11-11-10-10-11-11-------|
D|-------------------------------------------11-11-|
A|-------------------------------------------------|
E|-------------------------------------------------|

e|--------------------------------11-11-------------|
B|-------11-11-13-13-------131313-------13-13-14-14-|
G|-10-10-------------10-10--------------------------|
D|--------------------------------------------------|
A|--------------------------------------------------|
E|--------------------------------------------------|

e|-------------------------------------------------|
B|-13-13-------------------------------------------|
G|-------13-13-10-10-11-11-13-13-11-11-10-10-------|
D|-------------------------------------------11-11-|
A|-------------------------------------------------|
E|-------------------------------------------------|

e|-------------------------------------------------|
B|-------------------------------------------------|
G|-------------13-13-------------11-11-10-10-------|
D|-------11-11-------------11-11-------------13-13-|
A|-13-13-------------13-13-------------------------|
E|-------------------------------------------------|

e|-------------------------------------------------|
B|-------------11-11-------11-11-------------------|
G|-10-10-------------13-13-------------10-10-13-13-|
D|-------11-11-------------------13-13-------------|
A|-------------------------------------------------|
E|-------------------------------------------------|

e|-------------------------------------------------|
B|-------------------------------------------------|
G|-11-11-10-10-------------------13-13-11-11-10-10-|
D|-------------13-13-------11-11-------------------|
A|-------------------13-13-------------------------|
E|-------------------------------------------------|

e|-------------11-11-13-13-------------------------|
B|-13-13-14-14-------------14-14-13-13-11-11-------|
G|-------------------------------------------13-13-|
D|-------------------------------------------------|
A|-------------------------------------------------|
E|-------------------------------------------------|

e|--------------------------------------------------|
B|--------------------------------------------------|
G|----------13-----------13-----------13-10-11-10~~-|
D|----10-11--------10-11--------10-11---------------|
A|-13-----------13-----------13---------------------|
E|--------------------------------------------------|

e|--------|
B|--------|
G|--------|
D|--/11~~~|
A|--------|
E|--------|

e|--------------------------------------------------|
B|--------------------------------------------------|
G|----------13-----------13-----------13-11-10-10~~-|
D|----10-11--------10-11--------10-11---------------|
A|-13-----------13-----------13---------------------|
E|--------------------------------------------------|

e|------------------------11-13~~-|
B|---------------------11---------|
G|-11------------10-13------------|
D|----11~~----11------------------|
A|---------13---------------------|
E|--------------------------------|

e|--------------------------------------------------|
B|--------------------------------------------------|
G|----------13-----------13-----------13-11-10-10~~-|
D|----10-11--------10-11--------10-11---------------|
A|-13-----------13-----------13---------------------|
E|--------------------------------------------------|


The rest is too fast for me to even try to figure out


************************************

| p  Pull-off
| /  Slide up
| \  Slide down
| ~  Vibrato

************************************
Suggest correction
comments
print report bad tab
12 comments total. Showing first comments.
+6 reply
buckethead_jr 6,976 Jan 04, 2007 09:23 AM

...YES!!!YES!!!YES!!! finally, an excellent tab for an excellent song. *****

+4 reply
calebrocker 60 Mar 01, 2007 05:21 PM

i wish it was complete

+1 reply
Reckhead4 10 May 29, 2007 11:12 PM

amazing song, thanks bro

guest
You may want to rate the tab now too:
select rating
Wanna post a correction for this tab? Suggest correction