Oops, an error
Loading. Please wait.
We have an official Star Wars tab made by UG professional guitarists. Check out the tab »
×
88,726 views 60 this week
5 commentsread comments
1 2 3 4 5
x 15
add to favorites
×
Save as Personal and add changes to this tab that will be seen only by you. Learn more ›
×
You can save this tab as Personal to edit and correct it or add notes. All changes will be seen only by you. Learn more »
launch autoscroll
font size
0
reset
how to read this tab
guitar tuner
edit
Autoscroll
slow
fast
+/-
esc
set tempo
stop
Author
"STAR WARS"
                            As recorded by Buckethead
                        (From the 1994 Album GIANT ROBOT)

Music by J. Williams
Arranged by Buckethead
Transcribed by Eduardo Zanetti

          B5                   C#5                  F#5
      x 2 4 4 x x          x 4 6 6 x x          2 4 4 x x x

Gtr I (E A D G B E) - 'Untitled'
Gtr II (E A D G B E) - 'Untitled'
Gtr III (E A D G B E) - 'Untitled'

[Intro]
(00:07)

  Q=140
                               (B5)                                  N.C.
 4/4
                       Gtr I
                               PM----------------------------------|
                                                                     |-3-|
  Wx3          H.      Q       E S S E S S E S S E S S   E S S E S S Q Q Q
e|------------|-------------||--------------------------|----------------------||
B|------------|-------------||o-------------------------|---------------------o||
G|------------|-------------||--------------------------|----------------------||
D|------------|-------------||--------------------------|----------------------||
A|------------|---------x\--||o-2-2-2-2-2-2-2-2-2-2-2-2-|-2-2-2-2-2-2---------o||
E|------------|---------x\--||--------------------------|-------------4-0-4----||


  (B5)                                  N.C.
 4/4
  Gtr I
  PM----------------------------------|
                                        |-3-|
  E S S E S S E S S E S S   E S S E S S Q Q Q

e|-------------------------|-------------------|
B|-------------------------|-------------------|
G|-------------------------|-------------------|
D|-------------------------|-------------------|
A|-2-2-2-2-2-2-2-2-2-2-2-2-|-2-2-2-2-2-2-------|
E|-------------------------|-------------4-0-4-|


  (C#5)
  PM----------------------------------------------|
  E S S E S S E S S E S S   E S S E S S E S S E S S

e|-------------------------|-------------------------|
B|-------------------------|-------------------------|
G|-------------------------|-------------------------|
D|-------------------------|-------------------------|
A|-4-4-4-4-4-4-4-4-4-4-4-4-|-4-4-4-4-4-4-4-4-4-4-4-4-|
E|-------------------------|-------------------------|


[Theme]

    (B5)                                       N.C.
    Gtr II
                                                |--3--|
     H            H              +H             Q  Q  Q

e|----------------------------|-------------------------|
B|o--------------19-----------|-(19)-----------17-16----|
G|--16------------------------|----------------------18-|
D|----------------------------|-------------------------|
A|o---------------------------|-------------------------|
E|----------------------------|-------------------------|
|
|   Gtr I
|    PM--------------------------------------|
|                                               |--3--|
|    E S S E S S  E S S E S S     E  S S E S S  Q  Q  Q

e|----------------------------|-------------------------|
B|o---------------------------|-------------------------|
G|----------------------------|-------------------------|
D|----------------------------|-------------------------|
A|o--2-2-2-2-2-2--2-2-2-2-2-2-|---2--2-2-2-2-2----------|
E|----------------------------|-----------------4--0--4-|


  (B5)                                       N.C.
                                              |--3--|
   H            H              +H             Q  Q  Q

e|-19------------------------|-------------------------|
B|--------------19-----------|-(19)-----------17-16----|
G|---------------------------|----------------------18-|
D|---------------------------|-------------------------|
A|---------------------------|-------------------------|
E|---------------------------|-------------------------|
|
|  PM--------------------------------------|
|                                             |--3--|
|  E S S E S S  E S S E S S     E  S S E S S  Q  Q  Q

e|---------------------------|-------------------------|
B|---------------------------|-------------------------|
G|---------------------------|-------------------------|
D|---------------------------|-------------------------|
A|--2-2-2-2-2-2--2-2-2-2-2-2-|---2--2-2-2-2-2----------|
E|---------------------------|-----------------4--0--4-|


  (B5)                                       N.C.
                                              |--3--|
   H            H              +H             Q  Q  Q

e|-19------------------------|-------------------------|
B|--------------19-----------|-(19)-----------17-16-17-|
G|---------------------------|-------------------------|
D|---------------------------|-------------------------|
A|---------------------------|-------------------------|
E|---------------------------|-------------------------|
|
|  PM--------------------------------------|
|                                             |--3--|
|  E S S E S S  E S S E S S     E  S S E S S  Q  Q  Q

e|---------------------------|-------------------------|
B|---------------------------|-------------------------|
G|---------------------------|-------------------------|
D|---------------------------|-------------------------|
A|--2-2-2-2-2-2--2-2-2-2-2-2-|---2--2-2-2-2-2----------|
E|---------------------------|-----------------4--0--4-|


   (C#5)
    W                          +W

e|--------------------------|-------------------------------||
B|--------------------------|------------------------------o||
G|-18-----------------------|-(18)--------------------------||
D|--------------------------|-------------------------------||
A|--------------------------|------------------------------o||
E|--------------------------|-------------------------------||
|
|  PM-------------------------------------------------|
|  E S S E S S E S S E S S     E  S S E S S E S S E S S

e|--------------------------|-------------------------------||
B|--------------------------|------------------------------o||
G|--------------------------|-------------------------------||
D|--------------------------|-------------------------------||
A|--4-4-4-4-4-4-4-4-4-4-4-4-|---4--4-4-4-4-4-4-4-4-4-4-4---o||
E|--------------------------|-------------------------------||


[Interlude]

     (F#5)
      Q.   E  Q.    S  S    H     H
e|----------------------|-----------------|
B|o---------------------|-----------------|
G|----------------------|-----------------|
D|--------4h=6-----7h=9p|==7--------------|
A|o-/4------------------|--------4--------|
E|----------------------|-----------------|
|
 |    Q.   E  Q.    S  S    H     H
e|----------------------|-----------------|
B|o-------7-/9----10h12p|=10--------------|
G|--/6------------------|--------6--------|
D|----------------------|-----------------|
A|o---------------------|-----------------|
E|----------------------|-----------------|
|
 |   Gtr III
 |    W                    +H.       +E  E
e|----------------------|-----------------|
B|o--7------------------|-(7)-------(7)---|
G|----------------------|-----------------|
D|----------------------|---------------4-|
A|o---------------------|-----------------|
E|----------------------|-----------------|


            |3|  |--3--|
  Q.   S S  Q E  E E   E    H.       +E  S S

e|------------------------|--------------------|
B|------------------------|--------------------|
G|----------------------6p|==4--------(4)------|
D|------4h6h=7p4--7p4-----|--------------------|
A|-4----------------------|---------------4-4--|
E|------------------------|--------------------|
|
|           |3|  |--3--|
| Q.   S S  Q E  E E   E    H.       +E  S S

e|------------------------|--------------------|
B|------7h9h10p7-10p7-/14p|=12-------(12)------|
G|-6----------------------|---------------6-6--|
D|------------------------|--------------------|
A|------------------------|--------------------|
E|------------------------|--------------------|
|
 | W                        +H.       +E  S S
e|------------------------|--------------------|
B|-7----------------------|-(7)-------(7)------|
G|------------------------|--------------------|
D|------------------------|---------------4-4--|
A|------------------------|--------------------|
E|------------------------|--------------------|


  (F#5)
                                |---3---|
  Q.   E  E E E  E     H.       E   E   E

e|------------------|----------------------|
B|------------------|----------------------|
G|-------------6----|-/11------------------|
D|------4h=7p4----7-|----------------------|
A|-4----------------|-----------12--11---9-|
E|------------------|----------------------|
|
|                               |---3---|
| Q.   E  E E E  E     H.       E   E   E

e|-------------9----|--14------------------|
B|------7h10p7---10-|----------------------|
G|-6----------------|-----------14--13--11-|
D|------------------|----------------------|
A|------------------|----------------------|
E|------------------|----------------------|
|
|                               |---3---|
| W                   +H.      +E  +E   E

e|------------------|----------------------|
B|-7----------------|--(7)------(7)-(7)----|
G|------------------|----------------------|
D|------------------|--------------------4-|
A|------------------|----------------------|
E|------------------|----------------------|


       |--3--|
   Q   E  E  E  Q   Q     W

e|----------------------|------------------||
B|----------------------|-----------------o||
G|----------------------|------------------||
D|-11-------------------|------------------||
A|-----12-11--9---------|--9--------------o||
E|---------------9---9--|------------------||
|
|      |--3--|
|  Q   E  E  E  Q   Q     W

e|----------------------|------------------||
B|-14-------------------|-----------------o||
G|-----14-13-11---------|-11---------------||
D|--------------11--11--|------------------||
A|----------------------|-----------------o||
E|----------------------|------------------||
|
 |  W                     +H.      +E  E
e|----------------------|------------------||
B|--7-------------------|-(7)------(7)----o||
G|----------------------|------------------||
D|----------------------|--------------4---||
A|----------------------|-----------------o||
E|----------------------|------------------||


[Outro]
(01:14)

    (B5)
    Gtrs I, II
    PM--------------|
    E S S E S S E S S E E   Q  E E H

e|------------------------|-------------|
B|o-----------------------|-------------|
G|------------------------|-------------|
D|------------------------|-------------|
A|o-2-2-2-2-2-2-2-2-2---5-|-2----5-2----|
E|--------------------3---|----3--------|


  (F#5)
  PM--------------|
  E S S E S S E S S E E   Q  E E H

e|-----------------------|--------------||
B|-----------------------|-------------o||
G|-----------------------|--------------||
D|-4-4-4-4-4-4-4-4-4-5-4-|--------------||
A|-----------------------|-5----5-2----o||
E|-----------------------|----3---------||


[Final]
(01:28)

  (B5)
                                      |--3--|
   Q.    S  S  Q.    S  S    Q    Q   Q  Q  Q

e|-------------------------|--------------------|
B|-------------------------|--------------------|
G|-16----16-16-16----16-16-|-16---16--16-16-16--|
D|-------------------------|--------------------|
A|-------------------------|--------------------|
E|-------------------------|--------------------|
|
| Gtr II
|                                     |--3--|
|  Q.    S  S  Q.    S  S    Q    Q   Q  Q  Q

e|-------------------------|--------------------|
B|-------------------------|--------------------|
G|-------------------------|--------------------|
D|-------------------------|--------------------|
A|-14----14-14-14----14-14-|-14---14--14-14-14--|
E|-------------------------|--------------------|
|
 | Gtr III
 |  W                        +W
e|-------------------------|--------------------|
B|-------------------------|--------------------|
G|--4----------------------|-(4)----------------|
D|--4----------------------|-(4)----------------|
A|--2----------------------|-(2)----------------|
E|-------------------------|--------------------|


                                      |--3--|
   Q.    S  S  Q.    S  S    Q    Q   Q  Q  Q

e|-------------------------|-------------------|
B|-16----16-16-16----16-16-|-16---16--16-16-16-|
G|-------------------------|-------------------|
D|-------------------------|-------------------|
A|-------------------------|-------------------|
E|-------------------------|-------------------|
|
|                                     |--3--|
|  Q.    S  S  Q.    S  S    Q    Q   Q  Q  Q

e|-------------------------|-------------------|
B|-------------------------|-------------------|
G|-------------------------|-------------------|
D|-13----13-13-13----13-13-|-13---13--13-13-13-|
A|-------------------------|-------------------|
E|-------------------------|-------------------|
|
 |  W                        +W
e|-------------------------|-------------------|
B|-------------------------|-------------------|
G|--4----------------------|-(4)---------------|
D|--4----------------------|-(4)---------------|
A|--2----------------------|-(2)---------------|
E|-------------------------|-------------------|


  (B5)
                                      |--3--|
   Q.    S  S  Q.    S  S    Q    Q   Q  Q  Q

e|-------------------------|--------------------|
B|-19----19-19-19----19-19-|-19---19--19-19-19--|
G|-------------------------|--------------------|
D|-------------------------|--------------------|
A|-------------------------|--------------------|
E|-------------------------|--------------------|
|
|                                     |--3--|
|  Q.    S  S  Q.    S  S    Q    Q   Q  Q  Q

e|-------------------------|--------------------|
B|-------------------------|--------------------|
G|-------------------------|--------------------|
D|-16----16-16-16----16-16-|-16---16--16-16-16--|
A|-------------------------|--------------------|
E|-------------------------|--------------------|
|
 |  W                        +W

e|-------------------------|--------------------|
B|-------------------------|--------------------|
G|--4----------------------|-(4)----------------|
D|--4----------------------|-(4)----------------|
A|--2----------------------|-(2)----------------|
E|-------------------------|--------------------|


                                      |--3--|
   Q.    S  S  Q.    S  S    Q    Q   Q  Q  Q

e|-19----19-19-19----19-19-|-19---19--19-19-19-|
B|-------------------------|-------------------|
G|-------------------------|-------------------|
D|-------------------------|-------------------|
A|-------------------------|-------------------|
E|-------------------------|-------------------|
|
|                                     |--3--|
|  Q.    S  S  Q.    S  S    Q    Q   Q  Q  Q

e|-------------------------|-------------------|
B|-------------------------|-------------------|
G|-16----16-16-16----16-16-|-16---16--16-16-16-|
D|-------------------------|-------------------|
A|-------------------------|-------------------|
E|-------------------------|-------------------|
|
 |  W                        +W

e|-------------------------|-------------------|
B|-------------------------|-------------------|
G|--4----------------------|-(4)---------------|
D|--4----------------------|-(4)---------------|
A|--2----------------------|-(2)---------------|
E|-------------------------|-------------------|


                      B5
  7/4                4/4
   W        H.        W
e|------------------|------|
B|------------------|------|
G|------------------|-4----|
D|------------------|-4----|
A|------------------|-2----|
E|------------------|------|


   (B5)
   +W           +W           +W           +W           +H.      Q
e|------------|------------|------------|------------|-------------*|
B|------------|------------|------------|------------|-------------*|
G|-(4)--------|-(4)--------|-(4)--------|-(4)--------|-(4)------4\-*|
D|-(4)--------|-(4)--------|-(4)--------|-(4)--------|-(4)------4\-*|
A|-(2)--------|-(2)--------|-(2)--------|-(2)--------|-(2)------2\-*|
E|------------|------------|------------|------------|-------------*|



************************************

| (n)  Ghost note
| h    Hammer-on
| p    Pull-off
| /    Slide up
| \    Slide down 

************************************ 

            
            
Suggest correction
Creating personal tab
Creating personal tab
You can edit any tab online and save it as your Personal.

You can edit, replace or remove any tab part or add personal notes – all changes will be seen only by you.

Personal tabs can be accessed anytime from any device, even offline.
Learn more »
comments
print report bad tab
5 comments total. Showing first comments.
0 reply
wasted_fohlin 10 May 02, 2007 09:35 AM

Seems correct to me.
Should be 5 stars instead of 3.

0 reply
501blackhawk 31 Dec 20, 2007 04:52 PM

ehh.... not very good

+1 reply
MangeRamone 50 Mar 09, 2008 06:14 PM

toooooo complicated!

stop making a hen out of a feather deeeuwd!

guest
You may want to rate the tab now too:
select rating
Wanna post a correction for this tab? Suggest correction