Oops, an error
Loading. Please wait.

Sunbursts Tab

109 views 6 this week
6 commentsread comments
1 2 3 4 5
x 3
add to favorites
launch autoscroll
font size
0
reset
how to read this tab
guitar tuner
Autoscroll
slow
fast
+/-
esc
set tempo
stop
Help us to improve Ultimate-Guitar.com Take our survey!
×
Author
Difficulty
intermediate
'SUNBURSTS'
by Buckethead


tabbed by:    Dropdeee
tuning:       Standard
effects:      delay, feedbacker, wah
video:        https://www.youtube.com/watch?v=SAi3ul1GFAo


NOTE:  The wah is used throughout the song to various degrees so use it to your 
       preferred amount, although, I have highlighted where it's prominent.



[Intro]

e|--------------------10-----------------------------------------------------------|
B|--17--17~~~~/5------------------------------------------5~---/7~-/8~~--/13\12~~\-|
G|-----------------------11h12~~-11\7--/9~~-\2-/4~~~-------------------------------|
D|---------------------------------------------------------------------------------|
A|---------------------------------------------------------------------------------|
E|---------------------------------------------------------------------------------|

e|---------------------------------------------12----------------------------------|
B|--12--\10--\8-------------------------------------15--13\12----10---12p8--\------|
G|----------------11---12--\7-/9~~-------------------------------------------------|
D|---------------------------------------------------------------------------------|
A|---------------------------------------------------------------------------------|
E|---------------------------------------------------------------------------------|

                                         e|----------------------------------------|
                  alternative            B|----------------------------------------| sounds right
                    ending      >>>      G|---9----\7---\5\4--------2-----4--------| when using a
                      to        >>>      D|--------------------------------h5---\--| feedback pedal
                     intro               A|----------------------------------------|
                                         E|----------------------------------------|




 [Verse]

     (fade in)
e|------------------------------------------------------------|
B|--17~~~~~~~\-------------------------------------16hb~~~~~--|
G|--------------------2hbrp0----------------------------------|
D|---------------------------2---2p0(trill)-------------------|
A|-----------------------------------------2p0----------------|
E|---------------------------------------------0--------------|

                 use  wah  for  each  note  in  this  section
e|------------------------------------------------------------|
B|-----17-----------------------------------------------------|
G|--fpb14r------12p9------------------------------------------|
D|--------------------12p9---------------5--------------------|
A|---------------------------7--7-----7-----7----X---X-X-X-X--|
E|---------------------------------0--------------------------|
 
     use  wah   for  each  note   in   this  section  
e|------------------------------------------------------------|
B|---------------g10/12---------------------------------------|
G|--9---12\---X-----------12--g7/9----------------------------|
D|----------------------------------9\7-----------------------|
A|---------------------------------------10--7--7-------------|
E|------------------------------------------------------------|

e|-----15-----------------------------------------------------|
B|--12----12--15-----~~~~~------------------------------------|
G|------------------12---------g14/16\12----------------------|
D|------------------------------------------------------------|
A|------------------------------------------------------------|
E|------------------------------------------------------------|

                     hold bend
e|--18hb-r-hb----18hb-18-18--18br--17--15--14-----------------|
B|---------------------------------------------15--15h17------|
G|------------------------------------------------------------|
D|------------------------------------------------------------|
A|------------------------------------------------------------|
E|------------------------------------------------------------|

e|------------------------------------------------------------|
B|--15--------------------------------------------------------|
G|-----17-16--------------------------------------------------|
D|-----------17-16------12h14--12----------------12-----------|
A|-----------------17-------------14-12-10-12-14---------\\---|
E|-------------------------------------------------------\\---|


e|------------------------------------------------------------|
B|---------------------------------------8---8/10-10h12-------|
G|-----------------------7---7---7h9------h9------------------|
D|-------5---5h7-7/9------h9--h9------------------------------|
A|--7~----h7--------------------------------------------------|
E|------------------------------------------------------------|
                                                             
e|--10----10----10h12----15----15h17fb----17fb--17fb--17fb~------------------|
B|----h12---h12------------h17----------------------------------20p17~~--\\--|
G|---------------------------------------------------------------------------|
D|---------------------------------------------------------------------------|
A|---------------------------------------------------------------------------|
E|---------------------------------------------------------------------------|


 01:51

e|------------------------------------------------------------|
B|--------------------------16hb~~~~--------------------------|
G|------------------------------------------------------------|
D|--0h2p0(trill)----------------------------------------------|
A|---------------h2p0-----------------------------------------|
E|-------------------h3p0-------------------------------------|

e|----------------------------12----10--14---15--17--19~~~~\--|
B|----------------10--12--------------------------------------|
G|--9-----11--12----------12----------------------------------|
D|------------------------------------------------------------|
A|------------------------------------------------------------|
E|------------------------------------------------------------|

                     (trill)
e|--------------------------5h7~~-----------------------------|
B|--7h8p7p5h7h8p7p5--8p7p5--------------------g10/12~~~~------|
G|------------------------------------------------------------|
D|------------------------------------------------------------|
A|------------------------------------------------------------|
E|------------------------------------------------------------|

e|------------------------------------------------------------|
B|--16hb~~~------------15hb-15-12-----------------------------|
G|--------------------------------14fb~~--14fb-14-12----12----|
D|---------------------------------------------------14----14-|
A|------------------------------------------------------------|
E|------------------------------------------------------------|

e|------------------------------------------------------------|
B|------------------------------------------------------------|
G|---------------12-14fb~~~-----------------------------------|
D|--12--------14----------------------------------------------|
A|-----14-12--------------------------------------------------|
E|------------------------------------------------------------|



 [Uplifting Solo]  Use wah throughout


e|--------------------------------15--17hb-17--15\14-15p14----|
B|--15---15-------------------17---------------------------17-|
G|--14---14---14fb~-14p12-------------------------------------|
D|------------------------14----------------------------------|
A|------------------------------------------------------------|
E|------------------------------------------------------------|

e|------------------------------------------------------------|
B|---17-15----------------------------------------------------|
G|---------14-12-14/16--17-16---------------------------------|
D|----------------------------14---16h17-14--14---------------|
A|------------------------------------------------------------|
E|------------------------------------------------------------|

e|--------------15qb--------17fb--17hb-15---------------------|
B|--17-17-15-17-------17-15--------------h17--17\-------------|
G|------------------------------------------------------------|
D|------------------------------------------------------------|
A|------------------------------------------------------------|
E|------------------------------------------------------------|

e|------------------------------------------------------------|
B|----------15------------------------------------------------|
G|--14fb-------14hb-14-12h14-12-------------------------------|
D|------------------------------14-12-14--14------------------|
A|------------------------------------------------------------|
E|------------------------------------------------------------|

e|---------------------------------------------12-------------|
B|--------------------------------------(ph)12----12-15fb~~---| Pinch
G|--14fbrp12-12----------------12----12~----------------------| Harmonic
D|----------------14---12---14---h14--------------------------|
A|------------------------------------------------------------|
E|------------------------------------------------------------|

e|--12----12-15fb~~~--15fb-15-14-12----12---------------------|
B|-----15---------------------------15----15fb~~-\------------|
G|------------------------------------------------------------|
D|------------------------------------------------------------|
A|------------------------------------------------------------|
E|------------------------------------------------------------|

e|--17fb--17--15----------------------------------------------|
B|---------------17--17-15------------------------------------|
G|-------------------------14-12-14/16-16-16------------------|
D|-------------------------------------------14-14\-----------|
A|------------------------------------------------------------|
E|------------------------------------------------------------|

     Use     wah     on    each     note     in     this     section
e|--------------------------------------------------------------------------|
B|--------------------------------------------------------------------------|
G|------------9---12---11---9----------------------------14fb--12--12~~-----|
D|-------12---------------------12------------------------------------------|
A|--12-------------------------------12---10--------10----------------------|
E|---------------------------------------------12---------------------------|

          hold bend        Use wah on each note
e|------------------------------------------------------------|
B|--15fb~~~~~~~~~~15br-----12~~--10--8-7--3---5~~~~~\---------|
G|-----------------------9------------------------------------|
D|------------------------------------------------------------|
A|------------------------------------------------------------|
E|------------------------------------------------------------|







************************************

| x   Dead note
| g   Grace note
| (n) Ghost note
| h   Hammer-on
| p   Pull-off
| r   Release
| b   Bend
| br  Bend release
| pb  Pre-bend
| pbr Pre-bend release
| /   Slide up
| \   Slide down
| ~   Vibrato
| TR  Trill

************************************
Suggest correction
Give kudos to tab author, rate the tab!
1 2 3 4 5
comments
print report bad tab
6 comments total. Showing first comments.
+1 reply
ajanddino 756 Nov 13, 2016 07:34 PM

Awesome great tab.

0 reply
DropDeee 1,641 Nov 13, 2016 07:44 PM

Thanks for checking it out, Ajan :) I'm working on a few more Buckethead tracks next week, more from the 'Rainy Days' Pike. Love that mellow Bucket :)

0 reply
DropDeee 1,641 Nov 13, 2016 07:43 PM, edited at 07:45 pm

I might be able to figure out what fiter makes that sound at the beginning of the track too. Hmm...

guest
You may want to rate the tab now too:
select rating
Wanna post a correction for this tab? Suggest correction