Oops, an error
Loading. Please wait.

The Black Forest Tab

version 1
version 1

Intro

Whole song

1,338 views 6 this week
no commentswrite comment
1 2 3 4 5
worth learning
x 1
add to favorites
launch autoscroll
font size
0
reset
how to read this tab
guitar tuner
Tab Pro tools
  • play this tab
  • loop segment
  • change instrument
  • show fretboard
  • metronome
Autoscroll
slow
fast
+/-
esc
set tempo
stop
Contributor
Tuning
D# G# C# F# A# D#
Artist  : Buckethead
Song    : The Black Forest
Album   : The Cuckoo Clocks of Hell
Tuning  : Eb Ab Gb Bb Eb

These first four riffs were tabbed out by me700gnomes


e---0-0-0-0-0-0-0-0-0-0-0-0-0-0-0-0--| 
B---4-4-4-4-4-4-4-4-4-4-4-4-4-4-4-4--| 
G------------------------------------| 
D----2-1-2---2-1-2---2-1-2-1-2-1-2---| 
A------------------------------------| 
E--1-------1-------1-----------------| 

e-----------------------------------------------------------------| 
B--2p1-0h1-2p1-0h1-2p1--1-1-1-1-----------------------------------| 
G----------------------5-4-3-2------------------------------------| 
D-----------------------------------------------------------------| 
A-----------------------------------------------------------------| 
E-----------------------------------------------------------------| 

e---------------------12-11-10-9---------|
B----7--6--5--6--7--6-11-11-10-9--8------|
G----6--5--4--5--6--5-10-10-9--8--7------|
D----5--4--3--4--5--4--------------------|
A----------------------------------------|
E----------------------------------------|

e|-------------------13-------------------14---------------12-11-10-9------| 
B|------------------------------------------------7--6-----11-10-9--8------| 
G|----9-10-11-12-13--------9-10-11-12-13----------6--5-----10-9--8--7------| 
D|------------------------------------------------5--4---------------------| 
A|-------------------------------------------------------------------------| 
E|-------------------------------------------------------------------------| 

  Pause where he does
e---0-0-0-0-0-0-0-0-0-0-0-0-0-0-0-0--| 
B---4-4-4-4-4-4-4-4-4-4-4-4-4-4-4-4--| 
G------------------------------------| 
D----2-1-2---2-1-2---2-1-2-1-2-1-2---| 
A------------------------------------| 
E--1-------1-------1-----------------| 

e|----------------------------------| 
B|----------------------------------| 
G|----------------------------------| 
D|----------------------------------| 
A|----------------------5-4---------| 
E|----5-4---5-4-5-6-7---------------| 

e|---------------------------------7654------------| 
B|---------------------------7654------------------| 
G|---------------------7654------------------------| 
D|---------------7654------------------------------| 
A|----------7654-----------------------------------| 
E|-----7654----------------------------------------| 

e|----0---2--3--2h3------------| 
B|----4------------------------| 
G|-----------------------------| 
D|-----------------------------| 
A|-----------------------------| 
E|---2--2----------------------| 

e|---------------------------------------| 
B|------76547654-------------------------| 
G|----------------76547654---------------| 
D|---------------------------------------| 
A|---------------------------------------| 
E|---------------------------------------| 

I know this isn’t right but it sound close enough this is how I play it

e|-----9-8-9-8h9----9-8-9-8h9----7-8-7-7h8----7-8-7-7h8--------------| 
B|-------------------------------------------------------------------| 
G|-------------------------------------------------------------------| 
D|-------------------------------------------------------------------| 
A|-------------------------------------------------------------------| 
E|----0-0-0--------0-0-0--------0-0-0--------------------------------| 

e|----------------------------------| 
B|----------------------------------| 
G|----------------------------------| 
D|----------------------------------| 
A|-----------------6----------------| 
E|---5---5---4-5-6------------------| 

e|-------------------------------------------------------| 
B|-------------------------------------------------------| 
G|-------------------------------------------------------| 
D|---------------------------12-11-10-9------------------| 
A|----------------12-11-10-9------------12-11-10-9-------|
E|----12-11-10-9-----------------------------------------| 

e|------------------------------------------------------| 
B|------------------------------------------------------|
G|---------------12-11-10-9--------------12-11-10-9-----| 
D|----12-11-10-9-------------12-11-10-9-----------------| 
A|------------------------------------------------------| 
E|------------------------------------------------------| 

e|---------------------------------------12-11-10-9------13---------| 
B|----12-11-10-9-------------12-11-10-9-----------------------------| 
G|---------------12-11-10-9-----------------------------------------| 
D|------------------------------------------------------------------| 
A|------------------------------------------------------------------| 
E|------------------------------------------------------------------|

Please rate
comments
We did not receive enough feedback on this tab! Please rate:
print report bad tab
1 2 3 4 5
I want to post or [tab]
guest
You may want to rate the tab now too:
select rating
Please do not post tabs as comments. Select "correction" instead!