Oops, an error
Loading. Please wait.

The Blind Centipede Tab

version 1
version 1

Whole song

Interactive

537 views 1 this week
no commentswrite comment
1 2 3 4 5
excellent!
x 4
add to favorites
launch autoscroll
font size
0
reset
how to read this tab
guitar tuner
Autoscroll
slow
fast
+/-
esc
set tempo
stop
Help us to improve Ultimate-Guitar.com Take our survey!
×
Contributor
Difficulty
novice
-----------------------------------------------------------------------------
                        The Blind Centipede - Buckethead
-----------------------------------------------------------------------------
Tabbed by: Chris Tognetti (petrucci_owns86)
Email: christo10@pacbell.net

Tuning: Drop-B (B-F#-B-E-G#-C#)

Okay, here's "The Blind Centipede" from Buckethead's album Funnel Weaver. It's a fun 
to play, and it's about 55 seconds long. If you encounter any problems, PM me and I'll sort 
out. Have fun!

Riff A: Light Distortion
          *   *               *   *
e|------------------------------------|
B|------------------------------------|
G|------------------------------------|
D|------------------------------------|
A|----------0---3---------------0---3-|
E|-0h1~-1-0---0----x-x-0h1~-1-0---0---|

Riff B: Heavy Distortion
          *   *                   *   *
e|-------------------------------------------------|
B|-------------------------------------------------|
G|-------------------------------------------------|
D|----------2---5\-x-x-x-x----------2---5\-x-x-x-x-|
A|-0h1--1-0-0-0-3\-x-x-x-x-0h1--1-0-0-0-3\-x-x-x-x-|
E|-0h1--1-0---0----x-x-x-x-0h1--1-0---0----x-x-x-x-|

Don't do the string mutes right before the pause (listen to the song, you'll understand).


Here's the arrangement for the riffs:

0:04-0:07: Riff A 1x
0:08-0:24: Riff B 4x
0:24-0:28: Pause
0:28-0:31: Riff A 1x
0:32-0:48: Riff B 4x

=============================================================================

| *  palm mute
| /  slide up
| \  slide down
| h  hammer-on
| p  pull-off
| ~  vibrato
| +  harmonic
| x  Mute note
=============================================================================
comments
print report bad tab
I want to post or [tab]
guest
You may want to rate the tab now too:
select rating
Please do not post tabs as comments. Select "correction" instead!