Oops, an error
Loading. Please wait.

The Embalmer tab

version 2
version 2

Whole song

527 views 3 this week
no commentswrite comment
1 2 3 4 5
1 last vote to show rating
add to favorites
×
Save as Personal and add changes to this tab that will be seen only by you. Learn more ›
×
You can save this tab as Personal to edit and correct it or add notes. All changes will be seen only by you. Learn more »
launch autoscroll
font size
0
reset
how to read this tab
guitar tuner
edit
Autoscroll
slow
fast
+/-
esc
set tempo
stop
Difficulty
intermediate
-------------------------------------------------------------------------------
                             The Embalmer - Buckethead
-------------------------------------------------------------------------------
Tabbed by:Dan the Guitar Man
This is an awesome tune by Buckethead. This version comes from his 2009 Mishawaka
performance. Please forgive me for the solo for not being 100% spot on. 
Tuning:Standard

e|---------------5432345-------------5432345---------------------------------]
B|----X8----------------23-3210123----------23-------X8----------------------}
G|--------------------------------01-----------------------------------------}
D|-4-4-5-3-3-------------------------------------4-4-5-3-3-------------------|
A|-4-4-5-3-3-------------------------------------4-4-5-3-3-------------------|
E|-2-2-3-1-1-------------------------------------2-2-3-1-1-------------------|
 ^killswitch^
e|-20-17-------------17-15----17------20-17-----------17-15---17-15----------|
B|-------18---------------------18~~~~~----18-----------------------17-18~~~-|
G|----------17-17-15-------14----------------17-17-15------15----------------|
D|---------------------------------------------------------------------------|
A|---------------------------------------------------------------------------|
E|---------------------------------------------------------------------------|

e|-------------[----------------X5--------------------------]---------------|
B|---X6----------------------------------------------------------------------|
G|---------------9-----------8-----------7---6---5---------------------------|
D|-4-4-5-3-3-----9-----------8-----------7---6---5---------------------------|
A|-4-4-5-3-3-----7-----------6-----------5---4---3---------------------------|
E|-2-2-3-1-1-------0875-8750---0875-8750--00--00---0875-8750-----------------|
            
e|----------------------------------------------8h10p8-7~~h8-----------------|
B|-------------------SOLO:-------------8h10-10~~~~-----------10~/5-5-8-------|
G|-----X2-------------------6b^~~~8b^~~--------------------------------5-5---|
D|---------------------------------------------------------------------------|
A|---------23232323----------------------------------------------------------|
E|-22222222------------------------------------------------------------------|

e|---------------------------------------------------5/4/5--7h8--------------|
B|[1/2b]---------------------------------------5/4/5-----------10p9h10--5h6~~~
G|-4b^----------------5-7b^~~~~7pb^5h7p5~4~5h7-------------------------------|
D|----------5-7-7~~-/7-------------------------------------------------------|
A|--------7------------------------------------------------------------------|
E|---------------------------------------------------------------------------|

e|-----------------------------------------------------------5h7h8p7p5-5h7~7~~
B|3p1--0h1---------3h5--5~~~3/1 1~~-1h3~~1p0-0----------3-3h5----------------|
G|----------4h5~~----------------------------2-2-4-4h5-5---------------------|
D|---------2-----2----------------------------2---2--------------------------|
A|---------------------------------------------------------------------------|
E|---------------------------------------------------------------------------|

e|---------5-5--------5-5----------------------------------------------------|
B|-5/3-3~~~----3/1-1~~----3-1-0---------------------------------------20p17--|
G|------------------------------2-2-4~~~--17pb^-15-15h17--15b^-17b^17--------|
D|-------------------------------2----------------------17-------------------|
A|---------------------------------------------------------------------------|
E|---------------------------------------------------------------------------|

e|--------------------------16-17--------------------------------------------|
B|-20b^~~20~~~~-17h18p17p15--------------------------------------------------|
G|--------------------------------14-16b^-14p13h14-14~~---------14-14--------|
D|-----------------------------------------------------14p12-12~~-----12p10~~]
A|---------------------------------------------------------------------------|
E|---------------------------------------------------------------------------|


e ----------------------------------------------------------------------------
B -------------15h17--18/20-20-18h20p18--17h18--------------------------------
G -12h14-16/17---------------------------------17-~~~~~~~---------------------
D ----------------------------------------------------------------------------
A ----------------------------------------------------------------------------
E ----------------------------------------------------------------------------

            
            
Suggest correction
Creating personal tab
Creating personal tab
You can edit any tab online and save it as your Personal.

You can edit, replace or remove any tab part or add personal notes – all changes will be seen only by you.

Personal tabs can be accessed anytime from any device, even offline.
Learn more »
Give kudos to tab author, rate the tab!
1 2 3 4 5
comments
print report bad tab
guest
Wanna post a correction for this tab? Suggest correction