Oops, an error
Loading. Please wait.

The Fairy And The Devil Tab

version 2
version 2

Whole song

Interactive

2,863 views 9 this week
no commentswrite comment
1 2 3 4 5
excellent!
x 3
add to favorites
launch autoscroll
font size
0
reset
how to read this tab
guitar tuner
Tab Pro tools
  • play this tab
  • loop segment
  • change instrument
  • show fretboard
  • metronome
Autoscroll
slow
fast
+/-
esc
set tempo
stop
----------------------------------------------------------------------
                The Fairy and the Devil - Buckethead
----------------------------------------------------------------------
Well, I recently listened to this song by Buckethead but I found only the tabs 
for the cool solo part, so I made this one.
It’s my first tab, enjoy.

Tuning:6th string is ½ tone back

----------------------------------------------------------------------
This part is played by the rhythm guitar four times before the lead guitar 
(Buckethead)starts playing.
----------------------------------------------------------------------
e---------------------|
b---------------------|
g--------8\-------6\--|.
d---------------------|.x4
a--------6\-------2\--|
d-0-0-0------0-0------|


----------------------------------------------------------------------
                           Lead Guitar
----------------------------------------------------------------------
e-18-14----------------23-18-----------11/23-|
b-------16-16----11/23--------19-18----------|
g-------------15--------------------20-------|
d--------------------------------------------|
a--------------------------------------------|
d--------------------------------------------|

e----11----9--------9----------11----9---------------|
b------------9-9\11---12-11------------9\11----------|
g-11----11------------------11----11--------10-11-10-|
d----------------------------------------------------|
a----------------------------------------------------|
d----------------------------------------------------|

----------------------------------------------------------------------
                                 Solo 1
----------------------------------------------------------------------

e----11----9-11------------14----13-13-14h13-9~-|
b-11----11------9-9-11~-11----11----------------|
g-----------------------------------------------|
d-----------------------------------------------|
a-----------------------------------------------|
d-----------------------------------------------|

e----11----9-11-------------------------------|
b-11----11------9-9-11~-9\11-9----------------|
g------------------------------11-10(b1/2)----|
d------------------------------------------11-|
a---------------------------------------------|
d---------------------------------------------|

----------------------------------------------------------------------
                                End of solo 1
----------------------------------------------------------------------

e-------11\23|
b----11-11\23|
g-11-11-11\23|
d------------|
a------------|
d------------|

e---------------------------------------------|
b---------------------------------------------|
g------8-11-10------8-11-10------11h13p11----8|
d-8-11---------8-11---------11-8----------11--|
a---------------------------------------------|
d---------------------------------------------|

e---------------------------------------------------------------|
b---------------------------------------------------------------|
g-10h11-11\13-10h11-11\8-10h11-11\13-10h11p10h11p10h11p10h11p10-|
d---------------------------------------------------------------|
a---------------------------------------------------------------|
d---------------------------------------------------------------|

e----11----9-9h11------------------11----9--------9h11p911p911p911p9|
b-----------------9\11---------------------9-9\11-------------------|
g-11----11-------------10h11-11-11----11----------------------------|
d-------------------------------------------------------------------|
a-------------------------------------------------------------------|
d-------------------------------------------------------------------|


----------------------------------------------------------------------
                                 Solo 2
----------------------------------------------------------------------

e----11----9-11------------14----13-13-14h13-9~-|
b-11----11------9-9-11~-11----11----------------|
g-----------------------------------------------|
d-----------------------------------------------|
a-----------------------------------------------|
d-----------------------------------------------|

e----11----9-11--------------------------------------------------|
b-11----11------9-9-11~-9\11-9-----------------------------------|
g------------------------------11-10(b1/2)------6\8--------------|
d------------------------------------------11-8-----11-8---------|
a--------------------------------------------------------11-9----|
d-------------------------------------------------------------12~|

e----11----9-11------------14----13-13-14h13-9~-|
b-11----11------9-9-11~-11----11----------------|
g-----------------------------------------------|
d-----------------------------------------------|
a-----------------------------------------------|
d-----------------------------------------------|

e----11----9-11-------------------------------|
b-11----11------9-9-11~-9\11-9----------------|
g------------------------------11-10(b1/2)----|
d------------------------------------------11~|
a---------------------------------------------|
d---------------------------------------------|

----------------------------------------------------------------------
                                End of solo 2
----------------------------------------------------------------------

e-14\23-12\21-14\23-12\21-|
b-------------------------|
g-------------------------|
d-------------------------|
a-------------------------|
d-------------------------|

e------------------------13--------14/23~|
b-11-11-11-11b1/2-11b1/2----11b1/2-------|
g----------------------------------------|
d----------------------------------------|
a----------------------------------------|
d----------------------------------------|

----------------------------------------------------------------------
                                End of Song
----------------------------------------------------------------------
| /  slide up
| \  slide down
| h  hammer-on
| p  pull-off
| ~  vibrato
| b1/2 bend the note ½ tone

comments
We did not receive enough feedback on this tab! Please rate:
print report bad tab
1 2 3 4 5
I want to post or [tab]
guest
You may want to rate the tab now too:
select rating
Please do not post tabs as comments. Select "correction" instead!