Oops, an error
Loading. Please wait.

The Redeem Team Tab

version 1
version 1

Whole song

Interactive

7,307 views 6 this week
2 commentsread comments
1 2 3 4 5
x 5
add to favorites
launch autoscroll
font size
0
reset
how to read this tab
guitar tuner
backing track
0:00
0:00
Autoscroll
slow
fast
+/-
esc
set tempo
stop
This about half the song but not the intro!

THE REDEEM TEAM

Standard Tuning (E,A,D,G,B,e)

This is just the beginning THIS DOES NOT MEAN ITS EXACTLY RIGHT
BUT FOR THE MOST PART IS.

e|--------------------|-------7----------|
B|-------8h10p8-------|-----0---7--------|
G|--------------9-----|---0-------9---9--|
D|-----9----------9---|-------------9----|
A|---7--------------7-|------------------|
E|-0------------------|-8----------------|   \
					     x4
e|--------------------|-------7-5--------|   /
B|-------8h10p8-------|-----0---5--------|
G|---------------9----|---0-----7--------|
D|-----9-----------9--|---------7--------|
A|---7---------------7|------------------|
E|-0------------------|-8----------------|

e|---------------------|-------------------|
B|---------------------|-------------------|
G|---------------------|-------------------|  x2
D|-2-5-4-2-0-----------|-------------------|
A|-----------3-2-3-2-0-|-----2-3-----------|
E|---------------------|-3-5-----5-3-2-0---|

	 (up then down)
	      v
e|----12-14-14b----------12-------12----------|
B|-12-----------15-12-15----12-15-------------|
G|-----------------------------------12-11----|
D|-----------------------------------------14-|
A|--------------------------------------------|
E|--------------------------------------------| \
						 x?
e|----12-14-15-14-15-17-17b-| 			/
B|-12-----------------------|There is a tad more to this. just couldnt
G|--------------------------|figure it out. sorry.
D|--------------------------|
A|--------------------------|
E|--------------------------|

Have fun!
Suggest correction
comments
print report bad tab
2 comments total.
0 reply
Giant_Robot 81 Feb 20, 2009 09:17 AM

e|----12-14-15-14-------10-12--------------------------------------------|
B|-12-------------15-12-------12---10-12---------------------------------|
G|---------------------------------------12-11-9-------------------------|
D|-----------------------------------------------------------------------|
A|-----------------------------------------------------------------------|
E|-----------------------------------------------------------------------|

e|----12-14-15-14-15-17-19-20-19----22-20-19--------------------------------|
B|-12----------------------------20-----------------------------------------|
G|--------------------------------------------------------------------------|
D|--------------------------------------------------------------------------|
A|--------------------------------------------------------------------------|
E|--------------------------------------------------------------------------|

0 reply
Slapp62 80 Jun 19, 2009 03:47 PM

thanks man i love song

guest
You may want to rate the tab now too:
select rating
Wanna post a correction for this tab? Suggest correction