Oops, an error
Loading. Please wait.

The Return Of Captain Eo Tab

version 1
version 1

Whole song

Interactive

5,373 views 1 this week
5 commentsread comments
1 2 3 4 5
excellent!
x 3
add to favorites
launch autoscroll
font size
0
reset
how to read this tab
guitar tuner
Autoscroll
slow
fast
+/-
esc
set tempo
stop
Help us to improve Ultimate-Guitar.com Take our survey!
×
Contributor
hSn 352
		BUCKETHEAD - The Return of Captian EO
			A Real Diamond In The Rough
			tabbed by : hSnz0r


TUNING: Bb Standard(Whole guitar 3 whole steps down) (Or play on 7 string and
tune everything half step down)

Note : Listen to the song for timing!
0.00 - 0.09
This bend is pretty quick!
Bb--------------------------------------------------------------------------------|
F--------------------------5------------------------------------------------------|
Db-----------------------4-----------------------------4--------------------------|
Ab---------5---7b8b7p5-7-----------------5---7b8b9p5-7---------5------------------|
Eb--7-5-7---7--------------------5-7-5-7--7--------------5-6-7--------------------|
Bb---------------------------------------------------------------3-4-5--3-0-------|


0.09 - 0.19
Bb--------------------------------------------------------------------------------|
F---------------------------5-----------------------------------------------------|
Db------------------------4-----------------------------4-------------------------|
Ab----------5---7b8b7p5-7-----------------5---7b8b9p5-7---------5-----------------|
Eb-5-7-5-7---7--------------------5-7-5-7--7--------------5-6-7-------------------|
Bb----------------------------------------------------------------3-4-5--3-0------|


0.19 - 0.27
Bb--------------------------------------------------------------------------------|
F---------------------------5-----------------------------------------------------|
Db------------------------4-----------------------------4-------------------------|
Ab----------5---7b8b7p5-7-----------------5---7b8b9p5-7---------5-----------------|
Eb-5-7-5-7---7--------------------5-7-5-7--7--------------5-6-7-------------------|
Bb--------------------------------------------------------------------------------|


0.27 - 0.35 play this 3 times
Bb--------------------------------------------------------------------------------|
F---------------------------------------------------------------------------------|
Db--------------------------------------------------------------------------------|
Ab--7p5--5---7p5--5---------------------------------------------------------------|
Eb-----7--------7---5-6-7---------------------------------------------------------|
Bb--------------------------------------------------------------------------------|


0.35 - 0.42
Bb--------------------------------------------------------------------------------|
F---------------------------------------------------------------------------------|
Db--------------------------------------------------------------------------------|
Ab--7p5--5---7p5--5----------5----------------------------------------------------|
Eb-----7--------7----5--6--7------------------------------------------------------|
Bb------------------------------3-4-5--3-0----------------------------------------|

0.43 - 1.04
play 4 times
Bb--------------------------------------------------------------------------------|
F --------------------------------------------------------------------------------|
Db--------------------------------------------------------------------------------|
Ab--------------------------------------------------------------------------------|
Eb------7---5---------------------------------------------------------------------|
Bb---0-----------5-6-5--3---5-6-5--3----------------------------------------------|


1.04 - 1.15
play 2 times
Bb--------------------------------------------------------------------------------|
F --------------------------------------------------------------------------------|
Db--------------------------------------------------------------------------------|
Ab--------------------------------------------------------------------------------|
Eb------7-5-7----------3---5-7-5-3------------------------------------------------|
Bb---0-----------3-5-7--------------7---------------------------------------------|


1.15 - 1.25
play 2 times
Bb--------------------------------------------------------------------------------|
F --------------------------------------------------------------------------------|
Db--------------------------------------------------------------------------------|
Ab------7-5-7----------3---5-7-5-3------------------------------------------------|
Eb---0-----------3-5-7--------------7---------------------------------------------|
Bb--------------------------------------------------------------------------------|


1.26 - 1.31
Bb--------------------------------------------------------------------------------|
F --------------------------------------------------------------------------------|
Db--------------------------------------------------------------------------------|
Ab--------------------------------------------------------------------------------|
Eb------7---5---------------------------------------------------------------------|
Bb---0-----------5-6-5--3---5-6-5--3----------------------------------------------|


1.31 - 1.39
Bb--------------------------------------------------------------------------------|
F ------------------------------------------------------------------------4-------|
Db------------------------4------------------------5------------------------------|
Ab--------------------------------------------------------------------------------|
Eb------5--7--------5--7-----------5--7-------5--7---------5--7------5--7---------|
Bb---0-----------0--------------0----------0-------------0---------0--------------|


1.39 - 1.41
Bb--------------------------------------------------------------------------------|
F --------------------------------------------------------------------------------|
Db--------------------------------------------------------------------------------|
Ab--------------------------------------------------------------------------------|
Eb------5--7------2-3-2-----------------------------------------------------------|
Bb---0----------0-----------------------------------------------------------------|


1.41 - 1.51 dist on
Bb--------------------------------------------------------------------------------|
F ------------------------------------------------------------------------4-------|
Db------------------------4------------------------5------------------------------|
Ab--------------------------------------------------------------------------------|
Eb------5--7--------5--7-----------5--7-------5--7---------5--7------5--7---------|
Bb---0-----------0--------------0----------0-------------0---------0--------------|


1.51 - 1.53
Bb--------------------------------------------------------------------------------|
F --------------------------------------------------------------------------------|
Db--------------------------------------------------------------------------------|
Ab--------------------------------------------------------------------------------|
Eb-----2-3------------------------------------------------------------------------|
Bb---0--------5-3-2---------------------------------------------------------------|


1.53 - 2.14
play 4 times
Bb--------------------------2-----------------------------------------------------|
F --------------------0-1-3-------------------------------------------------------|
Db-------------2----2-------------------------------------------------------------|
Ab---4-2-4-5---2------------------------------------------------------------------|
Eb---2-0-2-3---0------------------------------------------------------------------|
Bb--------------------------------------------------------------------------------|


2.16 - 2.39
Strums these chords, listen to the song for the pattern.
On the higest string alternate between those two notes for the two chords when you hear 
change
Bb----8--5----------3--2----------------------------------------------------------|
F ----5-------------5-------------------------------------------------------------|
Db----5-------------4-------------------------------------------------------------|
Ab----7-------------2-------------------------------------------------------------|
Eb----7---------------------------------------------------------------------------|
Bb----5---------------------------------------------------------------------------|


2.39 - 2.47
Bb--------------------------------------------------------------------------------|
F --------------------------------------------------------------------------------|
Db--------------------------------------------------------------------------------|
Ab--------------------------------------------------------------------------------|
Eb-----6-5------------------------------------------------------------------------|
Bb---0----------------------------------------------------------------------------|

2.48 - 3.08
play 4 times
Bb--------------------------------------------------------------------------------|
F --------------------------------------------------------------------------------|
Db--------------------------------------------------------------------------------|
Ab---------2-x-4-------2----------2-x-4-------------------------------------------|
Eb---2-3-4-------------0----2-3-4-------------------------------------------------|
Bb---------------2-2-x------------------2-2---------------------------------------|


3.09 - 3.16
Bb--------------------------------------------------------------------------------|
F --------------------------5-----------------------------------------------------|
Db------------------------4-----------------------------4-------------------------|
Ab----------5---7b8b7p5-7-----------------5---7b8b9p5-7---------5-----------------|
Eb-5-7-5-7---7--------------------5-7-5-7--7--------------5-6-7-------------------|
Bb--------------------------------------------------------------------------------|


3.16 3.25
play 3 times
Bb--------------------------------------------------------------------------------|
F --------------------------------------------------------------------------------|
Db--------------------------------------------------------------------------------|
Ab--7p5--5---7p5--5---------------------------------------------------------------|
Eb-----7--------7---5-6-7---------------------------------------------------------|
Bb--------------------------------------------------------------------------------|

3.25 - END
Bb--------------------------------------------------------------------------------|
F --------------------------------------------------------------------------------|
Db--------------------------------------------------------------------------------|
Ab--7p5--5---7p5--5----------5----------------------------------------------------|
Eb-----7--------7----5--6--7------------------------------------------------------|
Bb------------------------------3-4-5--3-0----------------------------------------|
Suggest correction What's this?
You can suggest a correction to this tab. Community and Mods will review your correction and vote to approve or reject it.
comments
We did not receive enough feedback on this tab! Please rate:
print report bad tab
1 2 3 4 5
5 comments total. Showing first comments.
0 reply
SadulisteN 104 wrote on May 8 2009, 11:52 am

Awesome!Thanks

0 reply
SadulisteN 104 wrote on May 8 2009, 11:58 am

After listening to the song along with the tab, this is F-ing spot on! Thanks man! Really appreciated!

0 reply
hSn 352 wrote on June 7 2009, 04:49 pm

thx!

I want to post or [tab]
guest
You may want to rate the tab now too:
select rating
Please do not post tabs as comments. Select "correction" instead!